Oops, an error
Loading. Please wait.

Heaven Help Us tab

version 4
version 4

Whole song

Interactive

870 views 1 this week
no commentswrite comment
1 2 3 4 5
2 more votes to show rating
add to favorites
×
Save as Personal and add changes to this tab that will be seen only by you. Learn more ›
×
You can save this tab as Personal to edit and correct it or add notes. All changes will be seen only by you. Learn more »
launch autoscroll
font size
0
reset
how to read this tab
guitar tuner
edit
Autoscroll
slow
fast
+/-
esc
set tempo
stop
Author
Difficulty
-------------------------------------------------------------------------------
                             Heaven Help Us - My Chemical Romance
-------------------------------------------------------------------------------
Tabbed by: Fiyero754
Email: fiyero754@yahoo.com

Tuning: Standard

Notes:  So what I have done here: I have tabbed out each individual part by itself.  I
listened to this song numerous times, and even slowed it down.  Watch out for small
in the song, along with quick finger changes.  Hope you all enjoy this.

INTRO: Clean Gtr. (PM Throughout)

E||--------------------------|--------------------------|
B||--------------------------|--------------------------|
G||--------5-----------5-----|--------5-----------5-----|
D||-----7-----7-----7-----7--|-----7-----7-----7-----7--|
A||--0-----------0-----------|--0-----------0-----------|
E||--------------------------|--------------------------|


--------------------------|--------------------------|
--------------------------|--------------------------|
--------4-----------4-----|--------4-----------4-----|
-----6-----6-----6-----6--|-----6-----6-----6-----6--|
--------------------------|--------------------------|
--0-----------0-----------|--0-----------0-----------|


--------------------------|--------------------------|
--------3-----------3-----|--------3-----------3-----|
--------------------------|--------------------------|
-----3-----3-----3-----3--|-----3-----3-----3-----3--|
--5-----------5-----------|--0-----------5-----------|
--------------------------|--------------------------|


--------------------------|--------------------------|
--------1-----------1-----|--------1-----------0-----|
--------------------------|--------------------------|
-----3-----3-----3-----3--|-----3-----3-----3-----3--|
--3-----------3-----------|--------------------------|
--------------------------|--3-----------4-----------|


BRIDGE: Clean Gtr. (This part should be fingerd)


--0-------0-------0-------0-------|--1-------1-------3-------3-------|
--1-------1-------1-------1-------|--1-------1-------1-------1-------|
----------------------------------|----------------------------------|
----------------------------------|----------------------------------|
-----(3)-----(3)-----(3)-----(3)--|-----(3)-----(3)-----(3)-----(3)--|
----------------------------------|----------------------------------|

--3-------3-------3-------3-------|--1-------1-------1-------1-------|
--1-------1-------1-------1-------|--1-------1-------1-------1-------|
----------------------------------|----------------------------------|
----------------------------------|----------------------------------|
----------------------------------|----------------------------------|
-----(3)-----(3)-----(3)-----(3)--|-----(3)-----(3)-----(3)-----(3)--|

--0-------0-------0-------0-------|--1-------1-------3-------3-------|
--1-------1-------1-------1-------|--1-------1-------1-------1-------|
----------------------------------|----------------------------------|
----------------------------------|----------------------------------|
-----(0)-----(0)-----(0)-----(0)--|-----(0)-----(0)-----(0)-----(0)--|
----------------------------------|----------------------------------|

--3-------3-------3-------3-------|--1-------1-------1-------1-------|
--1-------1-------1-------1-------|--1-------1-------1-------1-------|
----------------------------------|----------------------------------|
-----(3)-----(3)-----(3)-----(3)--|-----(3)-----(3)-----(3)-----(3)--|
----------------------------------|----------------------------------|
----------------------------------|----------------------------------|

--0-------0-------0-------0-------|--1-------1-------3-------3-------|
--1-------1-------1-------1-------|--1-------1-------1-------1-------|
----------------------------------|----------------------------------|
----------------------------------|----------------------------------|
-----(3)-----(3)-----(3)-----(3)--|-----(3)-----(3)-----(3)-----(3)--|
----------------------------------|----------------------------------|

--3-------3-------3-------3-------|--1-------1-------1-------1-------|
--1-------1-------1-------1-------|--1-------1-------1-------1-------|
----------------------------------|----------------------------------|
----------------------------------|----------------------------------|
----------------------------------|----------------------------------|
-----(3)-----(3)-----(3)-----(3)--|-----(3)-----(3)-----(3)-----(3)--|

--0-------0-------0-------0-------|--1-------1-------3-------3-------|
--1-------1-------1-------1-------|--1-------1-------1-------1-------|
----------------------------------|----------------------------------|
----------------------------------|----------------------------------|
-----(0)-----(0)-----(0)-----(0)--|-----(0)-----(0)-----(0)-----(0)--|
----------------------------------|----------------------------------|

OUTRO: Clean Gtr. (PM)

|--------------------------|
|--------------------------|
|--------5-----------5-----|
|-----7-----7-----7-----7--|
|--0-----------0-----------|
|--------------------------|

--------------------------|--------------------------||
--------------------------|--------------------------||
--------5-----------5-----|--------5-----------5-----||
-----7-----7-----7-----7--|-----7-----7-----7-----7--||
--0-----------0-----------|--0-----------0-----------||
--------------------------|--------------------------||

_____________________________________________________________________________


Distortion Gtr. 1

VERSE (Ent. w/ drums)

                           PM through PRE-CHORUS

e|-------------------------|--------------------------|--------------------------|
B|-------------------------|--------1-----------1-----|--------1-----------1-----|
G|-------------------------|-----2-----2-----2-----2--|-----2-----2-----2-----2--|
D|-------------------------|--------------------------|--------------------------|
A|-------------------------|--0-----------0-----------|--0-----------0-----------|
E|-----------3--SH4~--L----|--------------------------|--------------------------|


--------------------------|--------------------------|
--------0-----------0-----|--------0-----------0-----|
-----1-----1-----1-----1--|-----1-----1-----1-----1--|
--------------------------|--------------------------|
--------------------------|--------------------------|
--0-----------0-----------|--0-----------0-----------|


--------------------------|--------------------------|
--------3-----------3-----|--------3-----------3-----|
--------------------------|--------------------------|
-----3-----3-----3-----3--|-----3-----3-----3-----3--|
--5-----------5-----------|--0-----------5-----------|
--------------------------|--------------------------|

--------------------------|--------------------------|
--------1-----------1-----|--------1-----------0-----|
--------------------------|--------------------------|
-----3-----3-----3-----3--|-----3-----3-----3-----3--|
--3-----------3-----------|--------------------------|
--------------------------|--3-----------4-----------|


--------------------------|--------------------------|
--------1-----------1-----|--------1-----------1-----|
-----2-----2-----2-----2--|-----2-----2-----2-----2--|
--------------------------|--------------------------|
--0-----------0-----------|--0-----------0-----------|
--------------------------|--------------------------|

--------------------------|--------------------------|
--------0-----------0-----|--------0-----------0-----|
-----1-----1-----1-----1--|-----1-----1-----1-----1--|
--------------------------|--------------------------|
--------------------------|--------------------------|
--0-----------0-----------|--0-----------0-----------|


--------------------------|--------------------------|
--------3-----------3-----|--------3-----------3-----|
--------------------------|--------------------------|
-----3-----3-----3-----3--|-----3-----3-----3-----3--|
--5-----------5-----------|--0-----------5-----------|
--------------------------|--------------------------|

                                                      PRE-CHORUS: (No PM)


--------------------------|--------------------------|-----------------------|
--------1-----------1-----|--------1-----------0-----|-----------------------|
--------------------------|--------------------------|--2--2-----------2--2--|
-----3-----3-----3-----3--|-----3-----3-----3-----3--|--2--2-----------2--2--|
--3-----------3-----------|--------------------------|--0--0-----------0--0--|
--------------------------|--3-----------4-----------|-----------------------|


                       CHORUS:


----------------------|--------------------------|--------------------------|
----------------------|--------------------------|--------------------------|
-----------2--2-------|--5--5--5--5--5--5--5--5--|--5--5--5--5--5--5--5--5--|
-----------2--2-------|--5--5--5--5--5--5--5--5--|--5--5--5--5--5--5--5--5--|
-----------0--0-------|--3--3--3--3--3--3--3--3--|--3--3--3--3--3--3--3--3--|
----------------------|--------------------------|--------------------------|

--------------------------|--------------------------|
--------------------------|--------------------------|
--------------------------|--------------------------|
--5--5--5--5--5--5--5--5--|--6--6--6--6--6--6--6--6--|
--5--5--5--5--5--5--5--5--|--7--7--7--7--7--7--7--7--|
--3--3--3--3--3--3--3--3--|--4--4--4--4--4--4--4--4--|

--------------------------|--------------------------|
--------------------------|--------------------------|
--------------------------|--------------------------|
--7--7--7--7--7--7--7--7--|--7--7--7--7--7--7--7--7--|
--7--7--7--7--7--7--7--7--|--7--7--7--7--7--7--7--7--|
--5--5--5--5--5--5--5--5--|--5--5--5--5--5--5--5--5--|

--------------------------|--------------------------|
--------------------------|--------------------------|
--------------------------|--------------------------|
--3--3--3--3--3--3--3--3--|--3--3--3--3--3--3--3--3--|
--3--3--3--3--3--3--3--3--|--3--3--3--3--3--3--3--3--|
--1--1--1--1--1--1--1--1--|--1--1--1--1--1--1--1--1--|

--------------------------|--------------------------|
--------------------------|--------------------------|
--5--5--5--5--5--5--5--5--|--5--5--5--5--5--5--5--5--|
--5--5--5--5--5--5--5--5--|--5--5--5--5--5--5--5--5--|
--3--3--3--3--3--3--3--3--|--3--3--3--3--3--3--3--3--|
--------------------------|--------------------------|


--------------------------|--------------------------|
--------------------------|--------------------------|
--------------------------|--------------------------|
--5--5--5--5--5--5--5--5--|--6--6--6--6--6--6--6--6--|
--5--5--5--5--5--5--5--5--|--7--7--7--7--7--7--7--7--|
--3--3--3--3--3--3--3--3--|--4--4--4--4--4--4--4--4--|

--------------------------|--------------------------|
--------------------------|--------------------------|
--------------------------|--------------------------|
--7--7--7--7--7--7--7--7--|--7--7--7--7--7--7--7--7--|
--7--7--7--7--7--7--7--7--|--7--7--7--7--7--7--7--7--|
--5--5--5--5--5--5--5--5--|--5--5--5--5--5--5--5--5--|

--------------------------|--------------------------|
--------------------------|--------------------------|
--------------------------|--------------------------|
--3--3--3--3--3--3--3--3--|--3--3--3--3--3--3--3--3--|
--3--3--3--3--3--3--3--3--|--3--3--3--3--3--3--3--3--|
--1--1--1--1--1--1--1--1--|--1--1--1--1--1--1--1--1--|

VERSE 2: (PM through PRE-CHORUS)


--------------------------|--------------------------|
--------1-----------1-----|--------1-----------1-----|
-----2-----2-----2-----2--|-----2-----2-----2-----2--|
--------------------------|--------------------------|
--0-----------0-----------|--0-----------0-----------|
--------------------------|--------------------------|

--------------------------|--------------------------|
--------0-----------0-----|--------0-----------0-----|
-----1-----1-----1-----1--|-----1-----1-----1-----1--|
--------------------------|--------------------------|
--------------------------|--------------------------|
--0-----------0-----------|--0-----------0-----------|


--------------------------|--------------------------|
--------3-----------3-----|--------3-----------3-----|
--------------------------|--------------------------|
-----3-----3-----3-----3--|-----3-----3-----3-----3--|
--5-----------5-----------|--0-----------5-----------|
--------------------------|--------------------------|


--------------------------|--------------------------|
--------1-----------1-----|--------1-----------0-----|
--------------------------|--------------------------|
-----3-----3-----3-----3--|-----3-----3-----3-----3--|
--3-----------3-----------|--------------------------|
--------------------------|--3-----------4-----------|


NOTE:  On this short part, the open A chords are PM, and the "5"s should be pinch 
and not PM

------------------------------|------------------------------|
------------------------------|------------------------------|
----------5~------------5~----|----------5~------------5~----|
--2--2----------2--2----------|--2--2----------2--2----------|
--0--0----------0--0----------|--0--0----------0--0----------|
------------------------------|------------------------------|

--------------------------|--------------------------|
--------0-----------0-----|--------0-----------0-----|
-----1-----1-----1-----1--|-----1-----1-----1-----1--|
--------------------------|--------------------------|
--------------------------|--------------------------|
--0-----------0-----------|--0-----------0-----------|

--------------------------|--------------------------|
--------3-----------3-----|--------3-----------3-----|
--------------------------|--------------------------|
-----3-----3-----3-----3--|-----3-----3-----3-----3--|
--5-----------5-----------|--0-----------5-----------|
--------------------------|--------------------------|

                                                     PRE-CHORUS:


--------------------------|--------------------------|-----------------------|
--------1-----------1-----|--------1-----------0-----|-----------------------|
--------------------------|--------------------------|--2--2-----------2--2--|
-----3-----3-----3-----3--|-----3-----3-----3-----3--|--2--2-----------2--2--|
--3-----------3-----------|--------------------------|--0--0-----------0--0--|
--------------------------|--3-----------4-----------|-----------------------|


                       CHORUS:


----------------------|--------------------------|--------------------------|
----------------------|--------------------------|--------------------------|
-----------2--2-------|--5--5--5--5--5--5--5--5--|--5--5--5--5--5--5--5--5--|
-----------2--2-------|--5--5--5--5--5--5--5--5--|--5--5--5--5--5--5--5--5--|
-----------0--0-------|--3--3--3--3--3--3--3--3--|--3--3--3--3--3--3--3--3--|
----------------------|--------------------------|--------------------------|

--------------------------|--------------------------|
--------------------------|--------------------------|
--------------------------|--------------------------|
--5--5--5--5--5--5--5--5--|--6--6--6--6--6--6--6--6--|
--5--5--5--5--5--5--5--5--|--7--7--7--7--7--7--7--7--|
--3--3--3--3--3--3--3--3--|--4--4--4--4--4--4--4--4--|

--------------------------|--------------------------|
--------------------------|--------------------------|
--------------------------|--------------------------|
--7--7--7--7--7--7--7--7--|--7--7--7--7--7--7--7--7--|
--7--7--7--7--7--7--7--7--|--7--7--7--7--7--7--7--7--|
--5--5--5--5--5--5--5--5--|--5--5--5--5--5--5--5--5--|


--------------------------|--------------------------|
--------------------------|--------------------------|
--------------------------|--------------------------|
--3--3--3--3--3--3--3--3--|--3--3--3--3--3--3--3--3--|
--3--3--3--3--3--3--3--3--|--3--3--3--3--3--3--3--3--|
--1--1--1--1--1--1--1--1--|--1--1--1--1--1--1--1--1--|


--------------------------|--------------------------|
--------------------------|--------------------------|
--5--5--5--5--5--5--5--5--|--5--5--5--5--5--5--5--5--|
--5--5--5--5--5--5--5--5--|--5--5--5--5--5--5--5--5--|
--3--3--3--3--3--3--3--3--|--3--3--3--3--3--3--3--3--|
--------------------------|--------------------------|

--------------------------|--------------------------|
--------------------------|--------------------------|
--------------------------|--------------------------|
--5--5--5--5--5--5--5--5--|--6--6--6--6--6--6--6--6--|
--5--5--5--5--5--5--5--5--|--7--7--7--7--7--7--7--7--|
--3--3--3--3--3--3--3--3--|--4--4--4--4--4--4--4--4--|

--------------------------|--------------------------|
--------------------------|--------------------------|
--------------------------|--------------------------|
--7--7--7--7--7--7--7--7--|--7--7--7--7--7--7--7--7--|
--7--7--7--7--7--7--7--7--|--7--7--7--7--7--7--7--7--|
--5--5--5--5--5--5--5--5--|--5--5--5--5--5--5--5--5--|

                                                      BRIDGE:


--------------------------|--------------------------|-------------------|
--------------------------|--------------------------|-------------------|
--------------------------|--------------------------|--5----------------|
--3--3--3--3--3--3--3--3--|--3--3--3--3--3--3--3--3--|--5----------------|
--3--3--3--3--3--3--3--3--|--3--3--3--3--3--3--3--3--|--3----------------|
--1--1--1--1--1--1--1--1--|--1--1--1--1--1--1--1--1--|-------------------|

-------------------|-------------------|-------------------|-------------------|
-------------------|-------------------|-------------------|-------------------|
--L----------------|--L----------------|--L----------------|--L----------------|
--L----------------|--L----------------|--L----------------|--L----------------|
--L----------------|--L----------------|--L----------------|--L----------------|
-------------------|-------------------|-------------------|-------------------|

-------------------|-------------------|-------------------|-------------------|
-------------------|-------------------|-------------------|-------------------|
--L----------------|--L----------------|-------------------|-------------------|
--L----------------|--L----------------|-------------------|-------------------|
--L----------------|--L----------------|-------------------|-------------------|
-------------------|-------------------|-------------------|-------------------|

-------------------|-------------------|-------------------|-------------------|
-------------------|-------------------|-------------------|-------------------|
-------------------|-------------------|-------------------|-------------------|
-------------------|-------------------|-------------------|-------------------|
-------------------|-------------------|-------------------|-------------------|
-------------------|-------------------|-------------------|-------------------|

----------------------|-------------------|-------------------|
----------------------|-------------------|-------------------|
----------------------|-------------------|-------------------|
----------------------|--3----------------|--L----------------|
-----------14\--------|--3----------------|--L----------------|
-----------14\--------|--1----------------|--L----------------|

-------------------|-------------------|-------------------|
-------------------|-------------------|-------------------|
-------------------|-------------------|-------------------|
--5----------------|--L----------------|-------------------|
--5----------------|--L----------------|-------------------|
--3----------------|--L----------------|--4----------------|

--------------------|--------------------|-------------------|
--------------------|--------------------|-------------------|
--------------------|--------------------|-------------------|
--------------------|--------------------|-------------------|
--------------------|--------------------|-------------------|
--0--------4--------|--5------------5----|--3----------------|

-------------------|-------------------|-------------------|
-------------------|-------------------|-------------------|
-------------------|-------------------|-------------------|
--3----------------|--L----------------|--5----------------|
--3----------------|--L----------------|--5----------------|
--1----------------|--L----------------|--3----------------|


                      CHORUS:


---------------------|--------------------------|--------------------------|
---------------------|--------------------------|--------------------------|
---5+----------------|--5--5--5--5--5--5--5--5--|--5--5--5--5--5--5--5--5--|
---------------------|--5--5--5--5--5--5--5--5--|--5--5--5--5--5--5--5--5--|
---------------------|--3--3--3--3--3--3--3--3--|--3--3--3--3--3--3--3--3--|
---------------------|--------------------------|--------------------------|


--------------------------|--------------------------|
--------------------------|--------------------------|
--------------------------|--------------------------|
--5--5--5--5--5--5--5--5--|--6--6--6--6--6--6--6--6--|
--5--5--5--5--5--5--5--5--|--7--7--7--7--7--7--7--7--|
--3--3--3--3--3--3--3--3--|--4--4--4--4--4--4--4--4--|


--------------------------|--------------------------|
--------------------------|--------------------------|
--------------------------|--------------------------|
--7--7--7--7--7--7--7--7--|--7--7--7--7--7--7--7--7--|
--7--7--7--7--7--7--7--7--|--7--7--7--7--7--7--7--7--|
--5--5--5--5--5--5--5--5--|--5--5--5--5--5--5--5--5--|


--------------------------|--------------------------|
--------------------------|--------------------------|
--------------------------|--------------------------|
--3--3--3--3--3--3--3--3--|--3--3--3--3--3--3--3--3--|
--3--3--3--3--3--3--3--3--|--3--3--3--3--3--3--3--3--|
--1--1--1--1--1--1--1--1--|--1--1--1--1--1--1--1--1--|

--------------------------|--------------------------|
--------------------------|--------------------------|
--5--5--5--5--5--5--5--5--|--5--5--5--5--5--5--5--5--|
--5--5--5--5--5--5--5--5--|--5--5--5--5--5--5--5--5--|
--3--3--3--3--3--3--3--3--|--3--3--3--3--3--3--3--3--|
--------------------------|--------------------------|

--------------------------|--------------------------|
--------------------------|--------------------------|
--------------------------|--------------------------|
--5--5--5--5--5--5--5--5--|--6--6--6--6--6--6--6--6--|
--5--5--5--5--5--5--5--5--|--7--7--7--7--7--7--7--7--|
--3--3--3--3--3--3--3--3--|--4--4--4--4--4--4--4--4--|


--------------------------|--------------------------|
--------------------------|--------------------------|
--------------------------|--------------------------|
--7--7--7--7--7--7--7--7--|--7--7--7--7--7--7--7--7--|
--7--7--7--7--7--7--7--7--|--7--7--7--7--7--7--7--7--|
--5--5--5--5--5--5--5--5--|--5--5--5--5--5--5--5--5--|


--------------------------|--------------------------|
--------------------------|--------------------------|
--------------------------|--------------------------|
--3--3--3--3--3--3--3--3--|--3--3--3--3--3--3--3--3--|
--3--3--3--3--3--3--3--3--|--3--3--3--3--3--3--3--3--|
--1--1--1--1--1--1--1--1--|--1--1--1--1--1--1--1--1--|


FINAL CHORUS:

--------------------------|--------------------------|
--------------------------|--------------------------|
--5--5--5--5--5--5--5--5--|--5--5--5--5--5--5--5--5--|
--5--5--5--5--5--5--5--5--|--5--5--5--5--5--5--5--5--|
--3--3--3--3--3--3--3--3--|--3--3--3--3--3--3--3--3--|
--------------------------|--------------------------|

--------------------------|--------------------------|
--------------------------|--------------------------|
--------------------------|--------------------------|
--5--5--5--5--5--5--5--5--|--6--6--6--6--6--6--6--6--|
--5--5--5--5--5--5--5--5--|--7--7--7--7--7--7--7--7--|
--3--3--3--3--3--3--3--3--|--4--4--4--4--4--4--4--4--|

--------------------------|--------------------------|
--------------------------|--------------------------|
--------------------------|--------------------------|
--7--7--7--7--7--7--7--7--|--7--7--7--7--7--7--7--7--|
--7--7--7--7--7--7--7--7--|--7--7--7--7--7--7--7--7--|
--5--5--5--5--5--5--5--5--|--5--5--5--5--5--5--5--5--|

--------------------------|--------------------------|
--------------------------|--------------------------|
--------------------------|--------------------------|
--3--3--3--3--3--3--3--3--|--3--3--3--3--3--3--3--3--|
--3--3--3--3--3--3--3--3--|--3--3--3--3--3--3--3--3--|
--1--1--1--1--1--1--1--1--|--1--1--1--1--1--1--1--1--|

--------------------------|--------------------------|
--------------------------|--------------------------|
--5--5--5--5--5--5--5--5--|--5--5--5--5--5--5--5--5--|
--5--5--5--5--5--5--5--5--|--5--5--5--5--5--5--5--5--|
--3--3--3--3--3--3--3--3--|--3--3--3--3--3--3--3--3--|
--------------------------|--------------------------|

--------------------------|--------------------------|
--------------------------|--------------------------|
--------------------------|--------------------------|
--5--5--5--5--5--5--5--5--|--6--6--6--6--6--6--6--6--|
--5--5--5--5--5--5--5--5--|--7--7--7--7--7--7--7--7--|
--3--3--3--3--3--3--3--3--|--4--4--4--4--4--4--4--4--|

--------------------------|--------------------------|-------------------|
--------------------------|--------------------------|-------------------|
--------------------------|--------------------------|-------------------|
--7--7--7--7--7--7--7--7--|--7--7--7--7--7--7--7--7--|--3----------------|
--7--7--7--7--7--7--7--7--|--7--7--7--7--7--7--7--7--|--3----------------|
--5--5--5--5--5--5--5--5--|--5--5--5--5--5--5--5--5--|--1----------------|

-------------------|-------------------|---------------------||
-------------------|-------------------|---------------------||
-------------------|-------------------|---------------------||
--L----------------|--5----------------|--L------------------||
--L----------------|--5----------------|--L------------------||
--L----------------|--3----------------|--L------------------||

________________________________________________________________________________


Distortion Gtr. 2

VERSE (Ent. @ Meas. 9)
PM until noted otherwise.


e|-------------------|--------------------------|--------------------------|
B|-------------------|--------------------------|--------------------------|
G|-------------------|--------------------------|--------------------------|
D|-------------------|--------------------------|--------------------------|
A|-------------------|--7--7--7--7--7--7--7--7--|--7--7--7--7--7--7--7--7--|
E|-------------------|--5--5--5--5--5--5--5--5--|--5--5--5--5--5--5--5--5--|

--------------------------|--------------------------|
--------------------------|--------------------------|
--------------------------|--------------------------|
--------------------------|--------------------------|
--2--2--2--2--2--2--2--2--|--2--2--2--2--2--2--2--2--|
--0--0--0--0--0--0--0--0--|--0--0--0--0--0--0--0--0--|

--------------------------|--------------------------|
--------------------------|--------------------------|
--------------------------|--------------------------|
--7--7--7--7--7--7--7--7--|--7--7--7--7--7--7--7--7--|
--5--5--5--5--5--5--5--5--|--5--5--5--5--5--5--5--5--|
--------------------------|--------------------------|


--------------------------|--------------------------|
--------------------------|--------------------------|
--------------------------|--------------------------|
--5--5--5--5--5--5--5--5--|--------------------------|
--3--3--3--3--3--3--3--3--|--5--5--5--5--7--7--7--7--|
--------------------------|--3--3--3--3--4--4--4--4--|

NO PALM MUTE:

--------------------------|--------------------------|
--------------------------|--------------------------|
--------------------------|--------------------------|
--------------------------|--------------------------|
--7--7--7--7--7--7--7--7--|--7--7--7--7--7--7--7--7--|
--5--5--5--5--5--5--5--5--|--5--5--5--5--5--5--5--5--|

--------------------------|--------------------------|
--------------------------|--------------------------|
--------------------------|--------------------------|
--------------------------|--------------------------|
--2--2--2--2--2--2--2--2--|--2--2--2--2--2--2--2--2--|
--0--0--0--0--0--0--0--0--|--0--0--0--0--0--0--0--0--|

--------------------------|--------------------------|
--------------------------|--------------------------|
--------------------------|--------------------------|
--7--7--7--7--7--7--7--7--|--7--7--7--7--7--7--7--7--|
--5--5--5--5--5--5--5--5--|--5--5--5--5--5--5--5--5--|
--------------------------|--------------------------|

                                                      PRE-CHORUS:


--------------------------|--------------------------|-----------------------|
--------------------------|--------------------------|-----------------------|
--------------------------|--------------------------|--x--x-----------x--x--|
--5--5--5--5--5--5--5--5--|--------------------------|--x--x-----------x--x--|
--3--3--3--3--3--3--3--3--|--5--5--5--5--7--7--7--7--|--x--x-----------x--x--|
--------------------------|--3--3--3--3--4--4--4--4--|-----------------------|

                       CHORUS:


----------------------|----------------------------------|
----------------------|----------------------------------|
-----------x--x-------|--12--12--12--12--12--12--12--12--|
-----------x--x-------|---x---x---x---x---x---x---x---x--|
-----------x--x-------|--10--10--10--10--10--10--10--10--|
----------------------|----------------------------------|

----------------------------------|----------------------------------|
----------------------------------|----------------------------------|
--12--12--12--12--12--12--12--12--|--12--12--12--12--12--12--12--12--|
---x---x---x---x---x---x---x---x--|---x---x---x---x---x---x---x---x--|
--10--10--10--10--10--10--10--10--|--10--10--10--10--10--10--10--10--|
----------------------------------|----------------------------------|

--------------------------------|--------------------------|
--------------------------------|--------------------------|
--10--10--10--10--10--10--9--9--|--5--5--5--5--5--5--5--5--|
---x---x---x---x---x---x--x--x--|--x--x--x--x--x--x--x--x--|
---8---8---8---8---8---8--7--7--|--3--3--3--3--3--3--3--3--|
--------------------------------|--------------------------|

--------------------------|----------------------------------|
--------------------------|----------------------------------|
--5--5--5--5--5--5--5--5--|--10--10--10--10--10--10--10--10--|
--x--x--x--x--x--x--x--x--|---x---x---x---x---x---x---x---x--|
--3--3--3--3--3--3--3--3--|---8---8---8---8---8---8---8---8--|
--------------------------|----------------------------------|


----------------------------------|----------------------------------|
----------------------------------|----------------------------------|
--10--10--10--10--10--10--10--10--|--12--12--12--12--12--12--12--12--|
---x---x---x---x---x---x---x---x--|---x---x---x---x---x---x---x---x--|
---8---8---8---8---8---8---8---8--|--10--10--10--10--10--10--10--10--|
----------------------------------|----------------------------------|

----------------------------------|----------------------------------|
----------------------------------|----------------------------------|
--12--12--12--12--12--12--12--12--|--12--12--12--12--12--12--12--12--|
---x---x---x---x---x---x---x---x--|---x---x---x---x---x---x---x---x--|
--10--10--10--10--10--10--10--10--|--10--10--10--10--10--10--10--10--|
----------------------------------|----------------------------------|

--------------------------------|--------------------------|
--------------------------------|--------------------------|
--10--10--10--10--10--10--9--9--|--5--5--5--5--5--5--5--5--|
---x---x---x---x---x---x--x--x--|--x--x--x--x--x--x--x--x--|
---8---8---8---8---8---8--7--7--|--3--3--3--3--3--3--3--3--|
--------------------------------|--------------------------|

--------------------------|----------------------------------|
--------------------------|----------------------------------|
--5--5--5--5--5--5--5--5--|--10--10--10--10--10--10--10--10--|
--x--x--x--x--x--x--x--x--|---x---x---x---x---x---x---x---x--|
--3--3--3--3--3--3--3--3--|---8---8---8---8---8---8---8---8--|
--------------------------|----------------------------------|

                                  VERSE 2: PM until noted otherwise.

----------------------------------|--------------------------|
----------------------------------|--------------------------|
--10--10--10--10--10--10--10--10--|--------------------------|
---x---x---x---x---x---x---x---x--|--------------------------|
---8---8---8---8---8---8---8---8--|--7--7--7--7--7--7--7--7--|
----------------------------------|--5--5--5--5--5--5--5--5--|

--------------------------|--------------------------|
--------------------------|--------------------------|
--------------------------|--------------------------|
--------------------------|--------------------------|
--7--7--7--7--7--7--7--7--|--2--2--2--2--2--2--2--2--|
--5--5--5--5--5--5--5--5--|--0--0--0--0--0--0--0--0--|

--------------------------|--------------------------|
--------------------------|--------------------------|
--------------------------|--------------------------|
--------------------------|--7--7--7--7--7--7--7--7--|
--2--2--2--2--2--2--2--2--|--5--5--5--5--5--5--5--5--|
--0--0--0--0--0--0--0--0--|--------------------------|

--------------------------|--------------------------|
--------------------------|--------------------------|
--------------------------|--------------------------|
--7--7--7--7--7--7--7--7--|--5--5--5--5--5--5--5--5--|
--5--5--5--5--5--5--5--5--|--3--3--3--3--3--3--3--3--|
--------------------------|--------------------------|


 NOTE: Full A5 chords are not to be PM.

--------------------------|------------------------|------------------------|
--------------------------|------------------------|------------------------|
--------------------------|--------2----------2----|--------2----------2----|
--------------------------|--2--2--2----2--2--2----|--2--2--2----2--2--2----|
--5--5--5--5--7--7--7--7--|--0--0--0----0--0--0----|--0--0--0----0--0--0----|
--3--3--3--3--4--4--4--4--|------------------------|------------------------|

--------------------------|--------------------------|
--------------------------|--------------------------|
--------------------------|--------------------------|
--------------------------|--------------------------|
--2--2--2--2--2--2--2--2--|--2--2--2--2--2--2--2--2--|
--0--0--0--0--0--0--0--0--|--0--0--0--0--0--0--0--0--|

--------------------------|--------------------------|
--------------------------|--------------------------|
--------------------------|--------------------------|
--7--7--7--7--7--7--7--7--|--7--7--7--7--7--7--7--7--|
--5--5--5--5--5--5--5--5--|--5--5--5--5--5--5--5--5--|
--------------------------|--------------------------|

                                                     PRE-CHORUS: No PM


--------------------------|--------------------------|-----------------------|
--------------------------|--------------------------|-----------------------|
--------------------------|--------------------------|--x--x-----------x--x--|
--5--5--5--5--5--5--5--5--|--------------------------|--x--x-----------x--x--|
--3--3--3--3--3--3--3--3--|--5--5--5--5--7--7--7--7--|--x--x-----------x--x--|
--------------------------|--3--3--3--3--4--4--4--4--|-----------------------|

----------------------|----------------------------------|
----------------------|----------------------------------|
-----------x--x-------|--12--12--12--12--12--12--12--12--|
-----------x--x-------|---x---x---x---x---x---x---x---x--|
-----------x--x-------|--10--10--10--10--10--10--10--10--|
----------------------|----------------------------------|


----------------------------------|----------------------------------|
----------------------------------|----------------------------------|
--12--12--12--12--12--12--12--12--|--12--12--12--12--12--12--12--12--|
---x---x---x---x---x---x---x---x--|---x---x---x---x---x---x---x---x--|
--10--10--10--10--10--10--10--10--|--10--10--10--10--10--10--10--10--|
----------------------------------|----------------------------------|


--------------------------------|--------------------------|
--------------------------------|--------------------------|
--10--10--10--10--10--10--9--9--|--5--5--5--5--5--5--5--5--|
---x---x---x---x---x---x--x--x--|--x--x--x--x--x--x--x--x--|
---8---8---8---8---8---8--7--7--|--3--3--3--3--3--3--3--3--|
--------------------------------|--------------------------|

--------------------------|----------------------------------|
--------------------------|----------------------------------|
--5--5--5--5--5--5--5--5--|--10--10--10--10--10--10--10--10--|
--x--x--x--x--x--x--x--x--|---x---x---x---x---x---x---x---x--|
--3--3--3--3--3--3--3--3--|---8---8---8---8---8---8---8---8--|
--------------------------|----------------------------------|

----------------------------------|----------------------------------|
----------------------------------|----------------------------------|
--10--10--10--10--10--10--10--10--|--12--12--12--12--12--12--12--12--|
---x---x---x---x---x---x---x---x--|---x---x---x---x---x---x---x---x--|
---8---8---8---8---8---8---8---8--|--10--10--10--10--10--10--10--10--|
----------------------------------|----------------------------------|

----------------------------------|----------------------------------|
----------------------------------|----------------------------------|
--12--12--12--12--12--12--12--12--|--12--12--12--12--12--12--12--12--|
---x---x---x---x---x---x---x---x--|---x---x---x---x---x---x---x---x--|
--10--10--10--10--10--10--10--10--|--10--10--10--10--10--10--10--10--|
----------------------------------|----------------------------------|


--------------------------------|--------------------------|
--------------------------------|--------------------------|
--10--10--10--10--10--10--9--9--|--5--5--5--5--5--5--5--5--|
---x---x---x---x---x---x--x--x--|--x--x--x--x--x--x--x--x--|
---8---8---8---8---8---8--7--7--|--3--3--3--3--3--3--3--3--|
--------------------------------|--------------------------|

--------------------------|----------------------------------|
--------------------------|----------------------------------|
--5--5--5--5--5--5--5--5--|--10--10--10--10--10--10--10--10--|
--x--x--x--x--x--x--x--x--|---x---x---x---x---x---x---x---x--|
--3--3--3--3--3--3--3--3--|---8---8---8---8---8---8---8---8--|
--------------------------|----------------------------------|

                                  BRIDGE:


----------------------------------|--------------------|-------------------|
----------------------------------|--------------------|-------------------|
--10--10--10--10--10--10--10--10--|--12----------------|--L----------------|
---x---x---x---x---x---x---x---x--|---x----------------|-------------------|
---8---8---8---8---8---8---8---8--|--10----------------|--L----------------|
----------------------------------|--------------------|-------------------|

--------------------|-------------------|-------------------|
--------------------|-------------------|-------------------|
---L----------------|--L----------------|--L----------------|
--------------------|-------------------|-------------------|
---L----------------|--L----------------|--L----------------|
--------------------|-------------------|-------------------|

-------------------|-------------------|
-------------------|-------------------|
--L----------------|--L----------------|
-------------------|-------------------|
--L----------------|--L----------------|
-------------------|-------------------|

CHORUS:


|----------------------------------|
|----------------------------------|
|--12--12--12--12--12--12--12--12--|
|---x---x---x---x---x---x---x---x--|
|--10--10--10--10--10--10--10--10--|
|----------------------------------|

----------------------------------|----------------------------------|
----------------------------------|----------------------------------|
--12--12--12--12--12--12--12--12--|--12--12--12--12--12--12--12--12--|
---x---x---x---x---x---x---x---x--|---x---x---x---x---x---x---x---x--|
--10--10--10--10--10--10--10--10--|--10--10--10--10--10--10--10--10--|
----------------------------------|----------------------------------|

--------------------------------|--------------------------|
--------------------------------|--------------------------|
--10--10--10--10--10--10--9--9--|--5--5--5--5--5--5--5--5--|
---x---x---x---x---x---x--x--x--|--x--x--x--x--x--x--x--x--|
---8---8---8---8---8---8--7--7--|--3--3--3--3--3--3--3--3--|
--------------------------------|--------------------------|

--------------------------|----------------------------------|
--------------------------|----------------------------------|
--5--5--5--5--5--5--5--5--|--10--10--10--10--10--10--10--10--|
--x--x--x--x--x--x--x--x--|---x---x---x---x---x---x---x---x--|
--3--3--3--3--3--3--3--3--|---8---8---8---8---8---8---8---8--|
--------------------------|----------------------------------|

----------------------------------|----------------------------------|
----------------------------------|----------------------------------|
--10--10--10--10--10--10--10--10--|--12--12--12--12--12--12--12--12--|
---x---x---x---x---x---x---x---x--|---x---x---x---x---x---x---x---x--|
---8---8---8---8---8---8---8---8--|--10--10--10--10--10--10--10--10--|
----------------------------------|----------------------------------|

----------------------------------|----------------------------------|
----------------------------------|----------------------------------|
--12--12--12--12--12--12--12--12--|--12--12--12--12--12--12--12--12--|
---x---x---x---x---x---x---x---x--|---x---x---x---x---x---x---x---x--|
--10--10--10--10--10--10--10--10--|--10--10--10--10--10--10--10--10--|
----------------------------------|----------------------------------|


--------------------------------|--------------------------|
--------------------------------|--------------------------|
--10--10--10--10--10--10--9--9--|--5--5--5--5--5--5--5--5--|
---x---x---x---x---x---x--x--x--|--x--x--x--x--x--x--x--x--|
---8---8---8---8---8---8--7--7--|--3--3--3--3--3--3--3--3--|
--------------------------------|--------------------------|

--------------------------|----------------------------------|
--------------------------|----------------------------------|
--5--5--5--5--5--5--5--5--|--10--10--10--10--10--10--10--10--|
--x--x--x--x--x--x--x--x--|---x---x---x---x---x---x---x---x--|
--3--3--3--3--3--3--3--3--|---8---8---8---8---8---8---8---8--|
--------------------------|----------------------------------|

                                  FINAL CHORUS:


----------------------------------|----------------------------------|
----------------------------------|----------------------------------|
--10--10--10--10--10--10--10--10--|--12--12--12--12--12--12--12--12--|
---x---x---x---x---x---x---x---x--|---x---x---x---x---x---x---x---x--|
---8---8---8---8---8---8---8---8--|--10--10--10--10--10--10--10--10--|
----------------------------------|----------------------------------|

----------------------------------|--------------------------|
----------------------------------|--------------------------|
--10--10--10--10--12--12--12--12--|--9--9--9--9--9--9--9--9--|
---x---x---x---x---x---x---x---x--|--x--x--x--x--x--x--x--x--|
---8---8---8---8--10--10--10--10--|--7--7--7--7--7--7--7--7--|
----------------------------------|--------------------------|

-----------------------------|-----------------------------------|
-----------------------------|-----------------------------------|
--9--9--9--9--9s--10--9s--5--|--12--12--12--12--12--12--12s--10--|
--x--x--x--x--x----x--x---x--|---x---x---x---x---x---x---x-------|
--7--7--7--7--7s---8--7s--3--|--10--10--10--10--10--10--10s---8--|
-----------------------------|-----------------------------------|

-----------------------------------|--------------------------|
-----------------------------------|--------------------------|
--10--10--10--10--10--10--10s--12--|--9--9--9--9--9--9--9--9--|
---x---x---x---x---x---x---x-------|--x--x--x--x--x--x--x--x--|
---8---8---8---8---8---8---8s--10--|--7--7--7--7--7--7--7--7--|
-----------------------------------|--------------------------|

--------------------------|--------------------------|
--------------------------|--------------------------|
--5--5--5--5--5s--7--5----|--5--5--5--5--5--5--5--5--|
--x--x--x--x--x------x----|--x--x--x--x--x--x--x--x--|
--3--3--3--3--3s--5--3----|--3--3--3--3--3--3--3--3--|
--------------------------|--------------------------|

----------------------------|--------------------------|
----------------------------|--------------------------|
--5s--7--7--7--7s--9--9--9--|--8g10----7--7------9--9--|
--x------x--x--x------x--x--|-----x----x--x------x--x--|
--3s--5--5--5--5s--7--7--7--|---7g8----5--5------7--7--|
----------------------------|--------------------------|

--------------------------|------------------------|--------------------------|
--------------------------|------------------------|--------------------------|
--L--9--9--9--9--9--9--9--|--10----7--7------9--9--|--9--9--9--9--9--9--9--9--|
-----x--x--x--x--x--x--x--|---x----x--x------x--x--|--x--x--x--x--x--x--x--x--|
--L--7--7--7--7--7--7--7--|---8----5--5------7--7--|--7--7--7--7--7--7--7--7--|
--------------------------|------------------------|--------------------------|

-------------------|-------------------|-------------------|-------------------|
-------------------|-------------------|-------------------|-------------------|
--5----------------|--L----------------|--7----------------|--L----------------|
--x----------------|-------------------|--x----------------|-------------------|
--3----------------|--L----------------|--5----------------|--L----------------|
-------------------|-------------------|-------------------|-------------------|

OUTRO:


-------------------|--------------------|-------------------|
-------------------|--------------------|-------------------|
-------------------|--------------------|-------------------|
-------------------|--------------------|-------------------|
-------------------|--------------------|-------------------|
--5----------------|--7--------8--------|--5----------------|

-----------------------||
-----------------------||
-----------------------||
--7----L\--------------||
--7----L\--------------||
--5----L\--------------||

___________________________________________________________________________

Solo Gtr.
NOTES: The solo guitar has some quick finger changes and quick picking.

DURING CHORUS: Ent. @ Meas. 34

-------------------|-------------------|--------------------------|
-------------------|-------------------|--------------------------|
-------------------|-------------------|--------------------------|
-------------------|-------------------|-----------14s--12--10----|
-------------------|-------------------|--------------------------|
-------------------|-------------------|--------------------------|

------------------15----------13--|----------12----------10----------|
----------13----------13----------|--13----------13----------13------|
------12------12----------12------|------12----------12----------12--|
--10------------------------------|----------------------------------|
----------------------------------|----------------------------------|
----------------------------------|----------------------------------|


------------------15----------13--|----------12----------10----------|
----------13----------13----------|--13----------13----------13------|
------12------12----------12------|------12----------12----------12--|
----------------------------------|----------------------------------|
--10------------------------------|----------------------------------|
----------------------------------|----------------------------------|

------------------15----------13--|----------12----------10----------|
----------13----------13----------|--13----------13----------13------|
------12------12----------12------|------12----------12----------12--|
----------------------------------|----------------------------------|
--12------------------------------|----------------------------------|
----------------------------------|----------------------------------|

--10----------12----------13------|------15--------------------|
------13----------13----------13--|----------13----------------|
----------12----------12----------|--12----------12--12--------|
----------------------------------|----------------------------|
----------------------------------|----------------------------|
----------------------------------|----------------------------|


VERSE 2: There is a bit of syncopation in this part, so be sure to listen for it.


-----------------------|-----------------------|--------------------|
--/10--------12--------|--/13--------15--------|--12----------------|
-----------------------|-----------------------|--------------------|
-----------------------|-----------------------|--------------------|
-----------------------|-----------------------|--------------------|
-----------------------|-----------------------|--------------------|

----------------------|--/12---------------10----|--L------------------|
--13--------15--------|-----------13--L----------|-------12------------|
----------------------|--------------------------|---------------------|
----------------------|--------------------------|---------------------|
----------------------|--------------------------|---------------------|
----------------------|--------------------------|---------------------|

-------------------------|---------------------------|---------------------|
--13------12----L--10----|--L----8----8s--10s--12----|--10~----------------|
-------------------------|---------------------------|---------------------|
-------------------------|---------------------------|---------------------|
-------------------------|---------------------------|---------------------|
-------------------------|---------------------------|---------------------|

-------------------|
--L----------------|
-------------------|
-------------------|
-------------------|
-------------------|

DURING CHORUS: Ent. @ Meas. 68

--------------------------|------------------15----------13--|
--------------------------|----------13----------13----------|
--------------------------|------12------12----------12------|
-----------14s--12--10----|--10------------------------------|
--------------------------|----------------------------------|
--------------------------|----------------------------------|

----------12----------10----------|------------------15----------13--|
--13----------13----------13------|----------13----------13----------|
------12----------12----------12--|------12------12----------12------|
----------------------------------|----------------------------------|
----------------------------------|--10------------------------------|
----------------------------------|----------------------------------|

----------12----------10----------|------------------15----------13--|
--13----------13----------13------|----------13----------13----------|
------12----------12----------12--|------12------12----------12------|
----------------------------------|----------------------------------|
----------------------------------|--12------------------------------|
----------------------------------|----------------------------------|

----------12----------10----------|--10----------12----------13------|
--13----------13----------13------|------13----------13----------13--|
------12----------12----------12--|----------12----------12----------|
----------------------------------|----------------------------------|
----------------------------------|----------------------------------|
----------------------------------|----------------------------------|


                             BRIDGE:


------15--------------------|--------------------|-------------------|
----------13----------------|--13----------------|--L----------------|
--12----------12--12--------|--12----------------|--L----------------|
----------------------------|--------------------|-------------------|
----------------------------|--------------------|-------------------|
----------------------------|--------------------|-------------------|

-------------------|-----------8---------|-------------------|
--L----------------|----------------6----|--5----------------|
--L----------------|---------------------|-------------------|
-------------------|---------------------|-------------------|
-------------------|---------------------|-------------------|
-------------------|---------------------|-------------------|

-------------------|-------------------|-----------8---------|
--L----------------|--L----------------|--L-------------6----|
-------------------|-------------------|---------------------|
-------------------|-------------------|---------------------|
-------------------|-------------------|---------------------|
-------------------|-------------------|---------------------|

-------------------|-------------------|-------------------|
--5----------------|--L----------------|--L----------------|
-------------------|-------------------|-------------------|
-------------------|-------------------|-------------------|
-------------------|-------------------|-------------------|
-------------------|-------------------|-------------------|

-----------8---------|-------------------|-------------------|
--L-------------6----|--5----------------|--L----------------|
---------------------|-------------------|-------------------|
---------------------|-------------------|-------------------|
---------------------|-------------------|-------------------|
---------------------|-------------------|-------------------|

DURING CHORUS: Ent. @ Meas. 110


--------------------------|------------------15----------13--|
--------------------------|----------13----------13----------|
--------------------------|------12------12----------12------|
-----------14s--12--10----|--10------------------------------|
--------------------------|----------------------------------|
--------------------------|----------------------------------|

----------12----------10----------|------------------15----------13--|
--13----------13----------13------|----------13----------13----------|
------12----------12----------12--|------12------12----------12------|
----------------------------------|----------------------------------|
----------------------------------|--10------------------------------|
----------------------------------|----------------------------------|

----------12----------10----------|------------------15----------13--|
--13----------13----------13------|----------13----------13----------|
------12----------12----------12--|------12------12----------12------|
----------------------------------|----------------------------------|
----------------------------------|--12------------------------------|
----------------------------------|----------------------------------|

----------12----------10----------|--10----------12----------13------|
--13----------13----------13------|------13----------13----------13--|
------12----------12----------12--|----------12----------12----------|
----------------------------------|----------------------------------|
----------------------------------|----------------------------------|
----------------------------------|----------------------------------|

------15--------------------||
----------13----------------||
--12----------12--12--------||
----------------------------||
----------------------------||
----------------------------||

There you have it folks.  Hope you like it.  If you have any questions, feel free to ask!


Tablature Legend
----------------
L - tied note
x - dead note
g - grace note
(n) - ghost note
> - accentuded note
NH - natural harmonic
AH - artificial harmonic
TH - tapped harmonic
SH - semi harmonic
PH - pitch harmonic
h - hammer on
p - pull off
b - bend
br - bendRelease
pb - preBend
pbr - preBendRelease
brb - bendReleaseBend
\n/ - tremolo bar dip
\n - tremolo bar dive
-/n - tremolo bar Release up
/n\ - tremolo bar inverted dip
/n - tremolo bar return
-\n - tremolo bar Release down

            
            
Suggest correction
Creating personal tab
Creating personal tab
You can edit any tab online and save it as your Personal.

You can edit, replace or remove any tab part or add personal notes – all changes will be seen only by you.

Personal tabs can be accessed anytime from any device, even offline.
Learn more »
Give kudos to tab author, rate the tab!
1 2 3 4 5
comments
print report bad tab
guest
You may want to rate the tab now too:
select rating
Wanna post a correction for this tab? Suggest correction