Oops, an error
Loading. Please wait.
3,497 views 90 this week
11 commentsread comments
1 2 3 4 5
x 8
add to favorites
×
Save as Personal and add changes to this tab that will be seen only by you. Learn more ›
×
You can save this tab as Personal to edit and correct it or add notes. All changes will be seen only by you. Learn more »
launch autoscroll
font size
0
reset
how to read this tab
guitar tuner
backing track
0:00
0:00
edit
Autoscroll
slow
fast
+/-
esc
set tempo
stop
this is how its played live but also works with the recorded version just not the first 
of the intro.to all mcr poser fans who likes them because of mtv.. this songs about 
and mikes grandma not some chick.

intro:
ray (guitar one)
e-------------------------------------------------|
b-------------------------------------------------|
g-------------------------------------------------|
d-------------------------------------------------|
a-777777101010107777777775555555557777771010101010
e-------------------------------------------------PM
repeat as many times

Frankie (guitar 2)
e-------------------------------------------------|
b-------------------------------------------------|
g-------------------------------------------------|
d--14~---9-11-13-11-9-11-13-11--------------------|
a-------------------------------------------------|
e-------------------------------------------------|

guitar 2
e-------------------------------------------------|
b-------------------------------------------------|
g-------------------------------------------------|
d--14141414111111111313131313999999111111113131313
a-------------------------------------------------|
e-------------------------------------------------|PMthats eleven (11)

d--14141414141111111199999999911111111313131313--PM

guitar 1
e--------------------------------------|
b--------------------------------------|
g--------------------------------------|
d--------------------------------------|PM
a7777777774444444466666622222444446666-
E--------------------------------------

a-77777744444442222244444666666--------PM

verse guitar 1
e----------------------------------------------------------------------|
B----------------------------------------------------------------------|
G------------6--------4------2-----------------------------------------|
D--x-x-x-x---6---2----4------2-----------------------------------------|
A--x-x-x-x---4---2----2------0-----------------------------------------|
E--x-x-x-x-------0-----------------------------------------------------|

guitar 2
e---------------------------|
B---------------------------|
G---------------------------|
D--x-x-x-x--------9---------|
A--x-x-x-x---11---7---9---7-|
E--x-x-x-x----9-------7---5-|

pre chorus

pre chorus (guitar 2
e---------------------------------------------------|
B---------------------------------------------------|
G------------6------4-------------------------------|
D------------6------4-------------------------------|
A-7-----7----4------2----7---7----------------------|
E-4-----5----------------4---5----------------------|

guitar 1
e----------------------------------------------------|
B----------------------------------------------------|
G----------------------------------------------------|
D----------------------------------------------------|
A-7-----7--------------------------------------------|
E-4-----5--------------------------------------------|

chorus guitar 1

e-------------------------------------------------------|
B-------------------------------------------------------|
G--9----------------------------------------------------|
D--9-----9-------------11-------------------------------|
A--7-----9------9------11--------9----------------------|
E--------7------8-------9--------8----------------------|
didn't figure out Franks part yet

guitar 1
clean (if u want u can play the two strings in the e power cord)
e----------------------------------------------------------|
B---9-------9----------------------------------------------|
G-------9-------9------------------------------------------|
D----------------------------------------------------------|
A-7---7---7---7--------------------------------------------|
E----------------------------------------------------------|

bridge
strum clean frakie (guitar 2)
e---------------------------------------------------------------------|
B---------------------------------------------------------------------|
G-9---8---9--11---13--11---9---8---9--11---13--11---13---14---16------|
D-x---x---x---x----x---x---x---x---x---x----x---x----x----x----x------|
A-7---6---7---9---11---9---7---6---7---9---11---9---11---12---14------|
E---------------------------------------------------------------------|

guitar 1
e--------------------------------------------------------------------|
b--------------------------------------------------------------------|
g-9--11---13---14----------------------------------------------------|
d-x---x----x----x----------------------------------------------------|
a-7---9---11---12----------------------------------------------------|
e--------------------------------------------------------------------|

chorus till the end
thats it any mistakes or questions just emal bblingbling008@aol.com..Yes i try to keep 
real but im not gangsta or watever..MCR.. bunch of sexy sexy dudes

            
            
Suggest correction
Creating personal tab
Creating personal tab
You can edit any tab online and save it as your Personal.

You can edit, replace or remove any tab part or add personal notes – all changes will be seen only by you.

Personal tabs can be accessed anytime from any device, even offline.
Learn more »
comments
print report bad tab
11 comments total. Showing first comments.
0 reply
hazards29 10 May 13, 2005 08:00 PM

k i been to 2 MCR shows and franks guitar for the chorus goes
e------------------------------------------------------
b------------------------------------------------------
g-9-----11-----13-----11----13-----14-----13-----9----11---9------8--
d-x-----x------x------x-----x------x------x------x----x----x------x--
a-7-x8--9--x4--11-x3--9-x10-11-x4--12-x3--11-x9--7-x3-9-x6-7-x2---6-x8
e------------------------------------------------------
the x's and numbers indicate how many times to strum the chord

0 reply
MCR_DIEAHRD 10 Aug 24, 2005 08:00 PM

well ur right about one thing... gerard is hot lol. and ya i hate mtv posers who like mCR cuz they're getting popular.. i blame trl for it. but i am happy they are getting the recognition they deserve. ive been to 3 mcr shows and ive met them twice. gerard constantly has a smoke in his mouth and sounds like sh1t cuz of his smoking but damn he can preform... MCR forever.

0 reply
MCR4LIF3 10 Aug 30, 2005 08:00 PM

awsome tab!!!
gerard sounds good on recorded and not recorded like at the vans warped tour he sounded awsome. at nokia unwired HE WAS THE BEST! youur right mcr poser fans r retards. every one watches mcr cause of one of there best songs r played on mtv. got i learned about them from there first album. i thought they were awsome.one mcr fan next to me at the tour said helena was about gerards old Girl Friend dying. Thats not F****** true its about gerards and mikeys grandma that passed away two weeks before they were BIG!

guest
Wanna post a correction for this tab? Suggest correction