Oops, an error
Loading. Please wait.
2,248 views 12 this week
1 commentread comment
1 2 3 4 5
2 more votes to show rating
add to favorites
×
Save as Personal and add changes to this tab that will be seen only by you. Learn more ›
×
You can save this tab as Personal to edit and correct it or add notes. All changes will be seen only by you. Learn more »
launch autoscroll
font size
0
reset
how to read this tab
guitar tuner
backing track
0:00
0:00
edit
Autoscroll
slow
fast
+/-
esc
set tempo
stop
                      
                  My Chemical romance - Helenla live tab

         Ray toro - left speaker tab

Intro
e|-XXXX-----------------------------------------------------------------------|
B|-XXXX-----------------------------------------------------------------------|
G|-XXXX-----------------------------------------------------------------------|
D|-XXXX-----------------------------------------------------------------------|
A|-XXXX9-9-9-9-9-9-9-9-9-7-7-0--9-9-9-9-9-9-9-9-7-7-0--9-9-9-9-9-9-9-9-7-7-0-|
PM      * * * * * * * * * * * * * * * * * * * * * * * * * * * * * * *


e|------------------------------------------------------------------|
B|------------------------------------------------------------------|
G|------------------------------------------------------------------|
D|------------------------------------------------------------------|
A|-9-9-9-9-9-9-9-9-7-7-0--11-11-11-11-11-12-12-12-12-14-14-14-------|
PM * * * * * * * * * * * * * * * * * * * * * * * * * * * * * 


e:|-----------------------------------------------------------------|
B:|-----------------------------------------------------------------|
G:|-----------------------------------------------------------------|
D:|-----------------------------------------------------------------|
A:|-----------------------------------------------------------------|
E:|-9-9-9-9-9-9-9-9-9-9-9-9-9-9-9-9-9-9-9-9-9-9-9-9-9-9-9-9-9-9-9-9-|
PM  * * * * * * * * * * * * * * * * * * * * * * * * * * * * * * * *

e:|-----------------------------------------------------------------|
B:|-----------------------------------------------------------------|
G:|-----------------------------------------------------------------|
D:|-----------------------------------------------------------------|
A:|-----------------------------------------------------------------|
E:|-0-0-0-0-0-0-0-0-0-0-0-0-0-0-0-0-7-7-7-7-7-7-7-7-4-4-4-4-4-4-4-4-|
PM  * * * * * * * * * * * * * * * * * * * * * * * * * * * * * * * *

e:|-----------------------------------------------------------------|
B:|-----------------------------------------------------------------|
G:|-----------------------------------------------------------------|
D:|-----------------------------------------------------------------|
A:|-----------------------------------------------------------------|
E:|-5-5-5-5-5-5-5-5-5-5-5-5-5-5-4-5-5-5-5-5-5-5-5-5-5-5-5-5-5-5-5-5-|
PM  * * * * * * * * * * * * * * * * * * * * * * * * * * * * * * * *

e:|-----------------------------------------------------------------|
B:|-----------------------------------------------------------------|
G:|-----------------------------------------------------------------|
D:|-----------------------------------------------------------------|
A:|-----------------------------------------------------------------|
E:|-9-9-9-9-9-9-9-9-9-9-9-9-9-9-9-9-7-7-7-7-7-7-7-7-7-7-7-7-0-0-0-0-|
PM  * * * * * * * * * * * * * * * * * * * * * * * * * * * * * * * *


Verse

e:|-----------------------------------------------------------------|
B:|-----------------------------------------------------------------|
G:|-----------------------------------------------------------------|
D:|-6-6-6-6-6-6-6-6-6-6-6-6-6-6-6-6-6-6-6-6-6-6-6-6-6-6-6-6-6-6-6-6-|
A:|-4-4-4-4-4-4-4-4-4-4-4-4-4-4-4-4-4-4-4-4-4-4-4-4-4-4-4-4-4-4-4-4-|
E:|-----------------------------------------------------------------|

e:|-----------------------------------------------------------------|
B:|-----------------------------------------------------------------|
G:|-----------------------------------------------------------------|
D:|-----------------------------------------------------------------|
A:|-4-4-4-4-4-4-4-4-4-4-4-4-4-4-4-4-6-6-6-6-6-6-6-6-7-7-7-7-7-7-7-7-|
E:|-0-0-0-0-0-0-0-0-0-0-0-0-0-0-0-0-7-7-7-7-7-7-7-7-4-4-4-4-4-4-4-4-|

e:|-----------------------------------------------------------------|
B:|-----------------------------------------------------------------|
G:|-----------------------------------------------------------------|
D:|-----------------------------------------------------------------|
A:|-4-4-4-4-4-4-4-4-4-4-4-4-4-4-4-4-6-6-6-6-6-6-6-6-6-6-6-6-6-6-6-6-|
E:|-5-5-5-5-5-5-5-5-5-5-5-5-5-5-5-5-5-5-5-5-5-5-5-5-5-5-5-5-5-5-5-5-|

e:|-----------------------------------------------------------------|
B:|-----------------------------------------------------------------|
G:|-----------------------------------------------------------------|
D:|-----------------------------------------------------------------|
A:|-7-7-7-7-7-7-7-7-7-7-7-7-7-7-7-7-7-7-7-7-7-7-7-7-7-7-7-7---------|
E:|-9-9-9-9-9-9-9-9-9-9-9-9-9-9-9-9-7-7-7-7-7-7-7-7-7-7-7-7-0-0-0-0-|
PM                                                          * * * *


Pre-chorus
e:|-----------------------------------------------------------------|
B:|-----------------------------------------------------------------|
G:|-----------------------------------------------------------------|
D:|-----------------------------------------------------------------|
A:|-7-7-7-7-7-7-7-7-9-9-9-9-9-9-9-9-7-7-7-7-7-7-7-7-9-9-9-9-9-9-9-9-|
E:|-4-4-4-4-4-4-4-4-4-4-4-4-4-4-4-4-5-5-5-5-5-5-5-5-5-5-5-5-5-5-5-5-|

e:|--------------------------------------------------------------------|
B:|--------------------------------------------------------------------|
G:|--------------------------------------------------------------------|
D:|--------------------------------------------------------------------|
A:|-1111111111111111-1212121212121212-9-9-9-9-9-9-9-9-1111111111111111-|
E:|-9-9-9-9-9-9-9-9--9-9-9-9-9-9-9-9--7-7-7-7-7-7-7-7-7-7-7-7-7-7-7-7--|


e:|-----------------------------------------------------------------|
B:|-----------------------------------------------------------------|
G:|-----------------------------------------------------------------|
D:|-----------------------------------------------------------------|
A:|-7-7-7-7-7-7-7-7-9-9-9-9-9-9-9-9-7-7-7-7-7-7-7-7-9-9-9-9-9-9-9-9-|
E:|-4-4-4-4-4-4-4-4-4-4-4-4-4-4-4-4-5-5-5-5-5-5-5-5-5-5-5-5-5-5-5-5-|

e:|-------------------------------------------------------------------|
B:|-------------------------------------------------------------------|
G:|-------------------------------------------------------------------|
D:|-------------------------------------------------------------------|
A:|-1111111111111111-1212121212121212-9-9-9-9-9-9-9-9-9-9-9-9---------|
E:|-9-9-9-9-9-9-9-9--9-9-9-9-9-9-9-9--7-7-7-7-7-7-7-7-7-7-7-7-0-0-0-0-|
PM                                                            * * * *

Chorus
e:|-----------------------------------------------------------------|
B:|-----------------------------------------------------------------|
G:|-----------------------------------------------------------------|
D:|-2-2-2-2-2-2-2-2-2-2-2-2-2-2-2-2-9-9-9-9-9-9-9-9-----------------|
A:|-2-2-2-2-2-2-2-2-2-2-2-2-2-2-2-2-9-9-9-9-9-9-9-9-9-9-9-9-9-9-9-9-|
E:|-0-0-0-0-0-0-0-0-0-0-0-0-0-0-0-0-7-7-7-7-7-7-7-7-8-8-8-8-8-8-8-8-|

e:|--------------------------------------------------------------------|
B:|--------------------------------------------------------------------|
G:|--------------------------------------------------------------------|
D:|-11111111111111111111111111111111-----------------------------------|
A:|-11111111111111111111111111111111-1212121212121212-1111111111111111-|
E:|-9-9-9-9-9-9-9-9-9-9-9-9-9-9-9-9--8-8-8-8-8-8-8-8--8-8-8-8-8-8-8-8--|

Pre-Verse:


e:|------------------|
B:|---9--------9-----|
G:|-------9--------9-|
D:|-9---9---9----9---|
A:|------------------|
E:|------------------|

Verse

e:|-----------------------------------------------------------------|
B:|-----------------------------------------------------------------|
G:|-----------------------------------------------------------------|
D:|-6-6-6-6-6-6-6-6-6-6-6-6-6-6-6-6-6-6-6-6-6-6-6-6-6-6-6-6-6-6-6-6-|
A:|-4-4-4-4-4-4-4-4-4-4-4-4-4-4-4-4-4-4-4-4-4-4-4-4-4-4-4-4-4-4-4-4-|
E:|-----------------------------------------------------------------|

e:|-----------------------------------------------------------------|
B:|-----------------------------------------------------------------|
G:|-----------------------------------------------------------------|
D:|-----------------------------------------------------------------|
A:|-4-4-4-4-4-4-4-4-4-4-4-4-4-4-4-4-6-6-6-6-6-6-6-6-7-7-7-7-7-7-7-7-|
E:|-0-0-0-0-0-0-0-0-0-0-0-0-0-0-0-0-7-7-7-7-7-7-7-7-4-4-4-4-4-4-4-4-|

e:|-----------------------------------------------------------------|
B:|-----------------------------------------------------------------|
G:|-----------------------------------------------------------------|
D:|-----------------------------------------------------------------|
A:|-4-4-4-4-4-4-4-4-4-4-4-4-4-4-4-4-6-6-6-6-6-6-6-6-6-6-6-6-6-6-6-6-|
E:|-5-5-5-5-5-5-5-5-5-5-5-5-5-5-5-5-5-5-5-5-5-5-5-5-5-5-5-5-5-5-5-5-|

e:|-----------------------------------------------------------------|
B:|-----------------------------------------------------------------|
G:|-----------------------------------------------------------------|
D:|-----------------------------------------------------------------|
A:|-7-7-7-7-7-7-7-7-7-7-7-7-7-7-7-7-7-7-7-7-7-7-7-7-7-7-7-7---------|
E:|-9-9-9-9-9-9-9-9-9-9-9-9-9-9-9-9-7-7-7-7-7-7-7-7-7-7-7-7-0-0-0-0-|
PM                                                          * * * *


Pre-chorus
e:|-----------------------------------------------------------------|
B:|-----------------------------------------------------------------|
G:|-----------------------------------------------------------------|
D:|-----------------------------------------------------------------|
A:|-7-7-7-7-7-7-7-7-9-9-9-9-9-9-9-9-7-7-7-7-7-7-7-7-9-9-9-9-9-9-9-9-|
E:|-4-4-4-4-4-4-4-4-4-4-4-4-4-4-4-4-5-5-5-5-5-5-5-5-5-5-5-5-5-5-5-5-|

e:|--------------------------------------------------------------------|
B:|--------------------------------------------------------------------|
G:|--------------------------------------------------------------------|
D:|--------------------------------------------------------------------|
A:|-1111111111111111-1212121212121212-9-9-9-9-9-9-9-9-1111111111111111-|
E:|-9-9-9-9-9-9-9-9--9-9-9-9-9-9-9-9--7-7-7-7-7-7-7-7-7-7-7-7-7-7-7-7--|


e:|-----------------------------------------------------------------|
B:|-----------------------------------------------------------------|
G:|-----------------------------------------------------------------|
D:|-----------------------------------------------------------------|
A:|-7-7-7-7-7-7-7-7-9-9-9-9-9-9-9-9-7-7-7-7-7-7-7-7-9-9-9-9-9-9-9-9-|
E:|-4-4-4-4-4-4-4-4-4-4-4-4-4-4-4-4-5-5-5-5-5-5-5-5-5-5-5-5-5-5-5-5-|

e:|-------------------------------------------------------------------|
B:|-------------------------------------------------------------------|
G:|-------------------------------------------------------------------|
D:|-------------------------------------------------------------------|
A:|-1111111111111111-1212121212121212-9-9-9-9-9-9-9-9-9-9-9-9---------|
E:|-9-9-9-9-9-9-9-9--9-9-9-9-9-9-9-9--7-7-7-7-7-7-7-7-7-7-7-7-0-0-0-0-|
PM                                                            * * * *


Chorus II:


e:|-----------------------------------------------------------------|
B:|-----------------------------------------------------------------|
G:|-----------------------------------------------------------------|
D:|-2-2-2-2-2-2-2-2-2-2-2-2-2-2-2-2-9-9-9-9-9-9-9-9-----------------|
A:|-2-2-2-2-2-2-2-2-2-2-2-2-2-2-2-2-9-9-9-9-9-9-9-9-9-9-9-9-9-9-9-9-|
E:|-0-0-0-0-0-0-0-0-0-0-0-0-0-0-0-0-7-7-7-7-7-7-7-7-8-8-8-8-8-8-8-8-|

e:|--------------------------------------------------------------------|
B:|--------------------------------------------------------------------|
G:|--------------------------------------------------------------------|
D:|-11111111111111111111111111111111-----------------------------------|
A:|-11111111111111111111111111111111-1212121212121212-1111111111111111-|
E:|-9-9-9-9-9-9-9-9-9-9-9-9-9-9-9-9--8-8-8-8-8-8-8-8--8-8-8-8-8-8-8-8--|

e:|-----------------------------------------------------------------|
B:|-----------------------------------------------------------------|
G:|-----------------------------------------------------------------|
D:|-2-2-2-2-2-2-2-2-2-2-2-2-2-2-2-2-9-9-9-9-9-9-9-9-----------------|
A:|-2-2-2-2-2-2-2-2-2-2-2-2-2-2-2-2-9-9-9-9-9-9-9-9-9-9-9-9-9-9-9-9-|
E:|-0-0-0-0-0-0-0-0-0-0-0-0-0-0-0-0-7-7-7-7-7-7-7-7-8-8-8-8-8-8-8-8-|

e:|------------------------------------------------------------------------|
B:|------------------------------------------------------------------------|
G:|------------------------------------------------------------------------|
D:|-11111111111111111111111111111111-----------------------------------2~~-|
A:|-11111111111111111111111111111111-1212121212121212-1111111111111111-2~~-|
E:|-9-9-9-9-9-9-9-9-9-9-9-9-9-9-9-9--8-8-8-8-8-8-8-8--8-8-8-8-8-8-8-8--0~~-|


Bridge
x4

e:|-----------------------------------------------------------------|
B:|-----------------------------------------------------------------|
G:|-----------------------------------------------------------------|
D:|-----------------------------------------------------------------|
A:|-7-7-7-7-7-7-7-7-7-7-7-7-7-7-7-7-4-4-4-4-4-4-4-4-4-4-4-4-4-4-4-4-|
E:|-9-9-9-9-9-9-9-9-9-9-9-9-9-9-9-9-5-5-5-5-5-5-5-5-5-5-5-5-5-5-5-5-|
    ...............................................................
palm mute

e:|-----------------------------------------------------------------|
B:|-----------------------------------------------------------------|
G:|-----------------------------------------------------------------|
D:|-----------------------------------------------------------------|
A:|-7-7-7-7-7-7-7-7-7-7-7-7-7-7-7-7-6-6-6-6-6-6-6-6-6-6-6-6-6-6-6-6-|
E:|-7-7-7-7-7-7-7-7-7-7-7-7-7-7-7-7-7-7-7-7-7-7-7-7-7-7-7-7-7-7-7-7-|
    ...............................................................
palm mute


Last Chorus

e|-----------------------------------------------------------------|
B|-----------------------------------------------------------------|
G|-----------------------------------------------------------------|
D|-2-2-2-2-2-2-2-2-2-2-2-2-2-2-2-2-9-9-9-9-9-9-9-9-----------------|
A|-2-2-2-2-2-2-2-2-2-2-2-2-2-2-2-2-9-9-9-9-9-9-9-9-9-9-9-9-9-9-9-9-|
E|-0-0-0-0-0-0-0-0-0-0-0-0-0-0-0-0-7-7-7-7-7-7-7-7-8-8-8-8-8-8-8-8-|

e|--------------------------------------------------------------------|
B|--------------------------------------------------------------------|
G|--------------------------------------------------------------------|
D|-11111111111111111111111111111111-----------------------------------|
A|-11111111111111111111111111111111-1212121212121212-1111111111111111-|
E|-9-9-9-9-9-9-9-9-9-9-9-9-9-9-9-9--8-8-8-8-8-8-8-8--8-8-8-8-8-8-8-8--|

e|-----------------------------------------------------------------|
B|-----------------------------------------------------------------|
G|-----------------------------------------------------------------|
D|-2-2-2-2-2-2-2-2-2-2-2-2-2-2-2-2-9-9-9-9-9-9-9-9-----------------|
A|-2-2-2-2-2-2-2-2-2-2-2-2-2-2-2-2-9-9-9-9-9-9-9-9-9-9-9-9-9-9-9-9-|
E|-0-0-0-0-0-0-0-0-0-0-0-0-0-0-0-0-7-7-7-7-7-7-7-7-8-8-8-8-8-8-8-8-|

e|------------------------------------------------------------------------|
B|------------------------------------------------------------------------|
G|------------------------------------------------------------------------|
D|-11111111111111111111111111111111---------------------------------------|
A|-11111111111111111111111111111111-1212121212121212-1111111111111111-----|
E|-9-9-9-9-9-9-9-9-9-9-9-9-9-9-9-9--8-8-8-8-8-8-8-8--8-8-8-8-8-8-8-8------|


End

e|--------------|
B|--------------|
G|--------------|
D|-----------2~-|
A|---------0-0~-|
E|--------------|

            
            
Suggest correction
Creating personal tab
Creating personal tab
You can edit any tab online and save it as your Personal.

You can edit, replace or remove any tab part or add personal notes – all changes will be seen only by you.

Personal tabs can be accessed anytime from any device, even offline.
Learn more »
Give kudos to tab author, rate the tab!
1 2 3 4 5
comments
print report bad tab
1 comment total.
0 reply
luigidakid 10 May 16, 2009 10:27 AM

I love My Chemical Romance!!! This tab is the most correct I have seen from live version!!!

guest
Wanna post a correction for this tab? Suggest correction