Oops, an error
Loading. Please wait.
We have an official I Dont Love You tab made by UG professional guitarists. Check out the tab »
×
2,004 views 1 this week
9 commentsread comments
1 2 3 4 5
x 3
add to favorites
×
Save as Personal and add changes to this tab that will be seen only by you. Learn more ›
×
You can save this tab as Personal to edit and correct it or add notes. All changes will be seen only by you. Learn more »
launch autoscroll
font size
0
reset
how to read this tab
guitar tuner
backing track
0:00
0:00
edit
Autoscroll
slow
fast
+/-
esc
set tempo
stop
Author
My Chemical Romance
I Don't Love You (Live in Hoboken,NJ)
The Black Parade Is Dead

Tabbed by:RyanC0215
Email:rcusa4@hotmail.com
Tuning: Standard-EADGBe

Updated verses and solo on 21/11/09
Updated solo on 23/11/09

This is an update from the first version submitted under my name. Ray's parts are 
now in it aswell.

I have put all of Frank's part in 1st and scroll down to see Ray's part

IT HAS THE SOLO NOW!!! 100% correct :D

(Search in youtube "I Don't Love you Live In Hoboken" to view this live version)


Guitar 1-Ray Toro
Guitar 2-Frank Lero

                               Guitar 1

 |Intro
e|--------------------------------1-----------------------------------------|
B|1----------1----------3---------1--------3--------------------------------|
G|0----------2----------0---------2--------0--------------------------------|
D|2--X16-----2--X16-----0--X16----3--X8----0--X8----------------------------|
A|3----------0----------2---------3--------2--------------------------------|
E|----------------------3---------1--------3--------------------------------|

|Verse 1 (part 1)
e|--------------------------------------------------------------------------|
B|--------------------------------------------------------------------------|
G|--------------------------------------------------------------------------|
D|--------------------------------------------------------------------------|
A|3h5--8~--7~~--5-7-5--3~~----(7/8)-8-10qbd~~-7~~-5~--7h8-7-----------------|
E|--------------------------------------------------------------------------|

 |Verse 1 (part 1)
e|-------------------------------------------------xx-x---------------------|
B|-------------------------------------------------xx-x---------------------|
G|-------------------------------------------------xx-x---------------------|
D|----------------------------2h3--3/5~~----2h3----xx-x---------------------|
A|3~~---5h7p5-------------2h3-------------------3--xx-x---------------------|
E|-------------3~~~--------------------------------xx-x---------------------|

 |Verse 1 (part2)
e|--------------------------------------------------------------------------|
B|--------------------------------------------------------------------------|
G|10-99-7-x-7/9\7-5-101010-99-7-x-7/9\7-5--1212-12-10109-x-7/9\7-5----------|
D|x--xx-x-x-x-x-x-x--xx-x--xx-x-x-x-x-x-x---x-x--x--xx-x-x-x-x-x-x----------|
A|8--77-5-x-5/7\5-3--88-8--77-5-x-5/7\5-3--1010-10--88-7-x-5/7\5-3----------|
E|--------------------------------------------------------------------------|

 |Verse 1 (part 2)
e|--------------------------------------------------------------------------|
B|--------------------------------------------------------------------------|
E|--------------------------------------------------------------------------|
G|1212-12-10109-x-7/9\7-5--5-5-5-5-5-5-5/7----------------------------------|
D|-x-x--x--xx-x-x-x-x-x-x--x-x-x-x-x-x-x-x--5-5-5-5-5-5-5-5-----------------|
A|1010-10--88-7-x-5/7\5-3--3-3-3-3-3-3-3/5--5-5-5-5-5-5-5-5-----------------|
E|------------------------------------------3-3-3-3-3-3-3-3-----------------|

 |Bridge 1
e|--------------------------------------------------------------------------|
B|--------------------------------------------------------------------------|
G|5/7-7-7-9-9-9-9-7-7-7-7-101010109~--77/9\7-5------------------------------|
D|x-x-x-x-x-x-x-x-x-x-x-x-x-x-x-x-x---xx-x-x-x------------------------------|
A|3/5-5-5-7-7-7-7-5-5-5-5-8-8-8-8-7~--55/7\5-3------------------------------|
E|--------------------------------------------------------------------------|

 |Chorus
e|--------------------------------------------------------------------------|
B|--------------------------------------------------------------------------|
G|101010101010-9-7~-7-5-7-9-7-5-7-5---5-7-9-7-5--5-9-7-5-4--4-5-7--5~~~-----|
D|x-x-x-x-x-x--x-x--x-x-x-x-x-x-x-x---x-x-x-x-x--x-x-x-x-x--x-x-x--x--------|
A|8-8-8-8-8-8--7-5~-5-3-5-7-5-3-5-3~--3-5-7-5-3--3-7-5-3-2--2-3-5--3~~~-----|
E|--------------------------------------------------------------------------|

|Verse 2 (part 1)
e|--------------------------------------------------------------------------|
B|--------------------------------------------------------------------------|
G|0-5-7-5-0-5-7-5~-5-7-99-7-5-7qb-------------------------------------------|
D|--------------------------------5-5h7~~-----3h5-5/7~-5-3-2-------0h2------|
A|-------------------------------------------------------------2h3----------|
E|---------------------------------------------------------------------3~~~-|

 |Verse 2 (part 1)     |Repeat Verse 1 (part 2) until...
e|----------------xx-x-------------------------------------------------------|
B|----------------xx-x-------------------------------------------------------|
G|----------------xx-x-----------------------------------5-5-5-5-5-5-7-7-7---|
D|----2h3-3/5~~---xx-x-----------------------------------x-x-x-x-x-x-x-x-x---|
A|2h3-------------xx-x-----------------------------------3-3-3-3-3-3-5-5-5---|
E|----------------xx-x-------------------------------------------------------|

e|--------------------------------------------------------------------------|
B|--------------------------------------------------------------------------|
G|1010101010101010----------------------------------------------------------|
D|-x-x-x-x-x-x-x-x----------------------------------------------------------|
A|8-8-8-8-8-8-8-8-----------------------------------------------------------|
E|--------------------------------------------------------------------------|

 |Bridge 2
e|-------------xx---------xx------------------------------------------------|
B|-------------xx---------xx------------------------------------------------|
G|9/1010101010-xx-7/99999-xx-555~----555555---------------------------------|
D|x--x-x-x-x-x-xx---------xx-xxx-----xxxxxx---------------------------------|
A|7/-8-8-8-8-8-xx-5/77777-xx-333~----333333---------------------------------|
E|-------------xx---------xx------------------------------------------------|


REPEAT CHORUS


 |Bridge into solo         |Solo
e|---------xx---------------------------------------------------------------|
B|---------xx---------------------------------------------------------------|
G|19191919-xx-191919191919--77777777------------5-5--444-2~-----------------|
D|-x-x-x-x-xx--x-x-x-x x x--77777777-5--555555--5-5--444-2~--3~-2~----------|
A|17171717-xx-171717171717--55555555-5--555555--3-3--222-0~--------3~-------|
E|---------xx------------------------3--333333------------------------------|

                   |Quiet chorus... |Outro
e|---------------------------------------------------------------------------|
B|---------------------------------------------------------------------------|
G|77777------------5~-----------------5~--7~--9-7-5-4-5-10-9--7--5--10-9--4-5|
D|77777-5-55555555-5~-----------------x---x---x-x-x-x-x-x--x--x--x--x--x--x-x|
A|55555-5-55555555-3~-----------------3~--5~--7-5-3-2-3-8--7--5--3--8--7--2-3|
E|------3-33333333-----------------------------------------------------------|

e|--------------------------------------------------------------------------|
B|--------------------------------------------------------------------------|
G|9-10-12~--14~--910-9-7-9-7-5~--5-7-9-7-5-4~--4-5-7-5~~~-------------------|
D|x-x---x----x---x-x-x-x-x-x-x---x-x-x-x-x-x---x-x-x-x----------------------|
A|7-8--10~--12~--7-8-7-5-7-5-3~--3-5-7-5-3-2~--2-3-5-3~~~-------------------|
E|--------------------------------------------------------------------------|


                               GUITAR 2

 |Intro
e|12----12----12----12----12----12----12----12~~--12----12----12----12------|
B|13----13----13----13----13----13----13----13~~--13----13----13----13------|
G|--12----12----12----12----12----12----12----------12----12----12----12----|
D|--------------------------------------------------------------------------|
A|--------------------------------------------------------------------------|
E|--------------------------------------------------------------------------|

e|13----13----12----12----12----12----15----12----13----13----12----12------|
B|13----13----13----13----13----13----13----13----13----13----13----13------|
G|--12----12----12----12----14----14----14----14----14----14----14----14----|
D|--------------------------------------------------------------------------|
A|--------------------------------------------------------------------------|
E|--------------------------------------------------------------------------|

e|10----10----10----10----10----10----10----10----12----12----12----12------|
B|13----13----13----13----12----12----13----13------------------------------|
G|--12----12----12----12----12----12----12----12----12----12----12----12----|
D|--------------------------------------------------------------------------|
A|--------------------------------------------------------------------------|
E|--------------------------------------------------------------------------|

e|10----10------------------------------------------------------------------|
B|------------13----12----13~~~~-///----------------------------------------|
G|--12----12----12----12----------------------------------------------------|
D|--------------------------------------------------------------------------|
A|--------------------------------------------------------------------------|
E|--------------------------------------------------------------------------|

 |Verse 1 (part 1)
e|-----------------------------xx-x-----------------------------------------|
B|1~---1~---3~---3~---1~---1~--xx-x-----------------------------------------|
G|2~---2~---0~---0~---0~---0~--xx-x-----------------------------------------|
D|2~---2~---0~---0~---2~---2~--xx-x-----------------------------------------|
A|0~---0~---2~---2~---3~---3~--xx-x-----------------------------------------|
E|----------3~---3~------------xx-x-----------------------------------------|

 |Verse 1 (part 2)
e|--------------------------------------------------------------------------|
B|--------------------------------------------------------------------------|
G|5-------2---------------5-------------------------------------------------|
D|5-X16---2-X16---5-------5-X16---------------------------------------------|
A|3-------0-------5-X16---3-------------------------------------------------|
E|----------------3---------------------------------------------------------|

 |Chorus
e|--------------------------------------------------------------------------|
B|--------------------------------------------------------------------------|
G|-----------------------------77777777-------------------------------------|
D|33333333-5555-6666-7777-2222-77777777-33333333-55555555-------------------|
A|33333333-5555-6666-7777-2222-55555555-33333333-55555555-3~~~--------------|
E|11111111-3333-4444-5555-0000----------11111111-33333333-------------------|


 |Verse 2 (part 1)
e|--------------------------------------------------xx-x--------------------|
B|---5--5--5--5-------3--3--3--3-------3--3--3--3---xx-x--------------------|
G|-5--5--5--5--5----5--5--5--5--5----4--4--4--4--4--xx-x--------------------|
D|5-5--5--5--5--5--5-5--5--5--5--5--5-5--5--5--5--5-xx-x--------------------|
A|--------------------------------------------------xx-x--------------------|
E|--------------------------------------------------xx-x--------------------|

Repeat Verse 1 (part 2)

Repeat Chorus

 |SOLO!!!
e|--------------------------------------------------------------------|
B|--------------------------------------------------------------------|
G|12-14~14~14~14~14~-12------10p9-9~~7~~-----10-10p9-7-7~~----------10|
D|----------------------10-12-----------10h12--------------10h12-12---|
A|--------------------------------------------------------------------|
E|--------------------------------------------------------------------|

                                         |    speeds up      |
e|-------------------------------------------------------------------|
B|-------------------------------------------------------------------|
G|9-7-7h9~----------------------------------7h9-10p9-9p7-7\5-5/7~----|
D|--------10-10~~-----xx12p10-----10/12~~12----------------------5-5~|
A|---------------10h12-------12p10-----------------------------------|
E|-------------------------------------------------------------------|

                             |hold the bends up
e|-------------------------------------------------------------------|
B|-------------------------------------------------------------------|
G|----------------------------hb-fb----------------------------------|
D|-----xx12p10------10~~~-12~-12-12~~~--\\\--------------------------|
A|10h12-------12p10--------------------------------------------------|
E|-------------------------------------------------------------------|

Quiet Chorus

 |Outro
e|-------------------------------------------------------------------|
B|-------------------------------------------------------------------|
G|5--4--2-----------------------5--4--2------------------------------|
D|5--4--2--5--33333333-55555555-5--4--2--5--33333333-55555555--------|
A|3--2--0--5--33333333-55555555-3--2--0--5--33333333-55555555-3~~~---|
E|---------3--11111111-33333333----------3--11111111-33333333--------|

Note when Ray is doing vibratos they are very strong as if he was doing a pinch harmonic.

|() optional
|fb full bend
|hb half bend
|qb quater bend up
|qbd quater bend down
| /  slide up
| \  slide down
| h  hammer-on
| p  pull-off
| ~  vibrato
| x  mute note
============================================================================

            
            
Suggest correction
Creating personal tab
Creating personal tab
You can edit any tab online and save it as your Personal.

You can edit, replace or remove any tab part or add personal notes – all changes will be seen only by you.

Personal tabs can be accessed anytime from any device, even offline.
Learn more »
Give kudos to tab author, rate the tab!
1 2 3 4 5
comments
print report bad tab
9 comments total. Showing first comments.
0 reply
JCrompton 79 Nov 20, 2009 02:19 PM

sad to say i don't agree with the solo, i've tried tabbing it (but failed) and im pretty sure that it's just the solo that they play differently so in my opinion some of it's wrong. good try though... :).

0 reply
RyanC0215 51 Nov 20, 2009 04:49 PM

yer i hav played my tab of the solo with the track and it sounded 100% perfect lol haha. But i sorta agree with you though coz he does play it very well

0 reply
JCrompton 79 Nov 21, 2009 06:25 AM

my apologies, the solos definately right, i'll re-rate it XD

guest
You may want to rate the tab now too:
select rating
Wanna post a correction for this tab? Suggest correction