Oops, an error
Loading. Please wait.

I Never Told You What I Do For A Living tab

version 4
version 4

Whole song

Interactive

14,696 views 21 this week
9 commentsread comments
1 2 3 4 5
x 19
add to favorites
×
Save as Personal and add changes to this tab that will be seen only by you. Learn more ›
×
You can save this tab as Personal to edit and correct it or add notes. All changes will be seen only by you. Learn more »
launch autoscroll
font size
0
reset
how to read this tab
guitar tuner
edit
Autoscroll
slow
fast
+/-
esc
set tempo
stop
Author
TRACK NO. 13 – I NEVER TOLD YOU WHAT I DO FOR A LIVING

Updates:
19/12/06 – Completely retabbed the song!

Ins.:
	Gtr 1 – Frank Iero
	Gtr 2 – Ray Toro
	Gtr 3 - ?? (Overdubbed)


I. INTRO

Gtr 1
e|-----------------|-----------------|----------------------|--------------|
B|-----------------|-----------------|----------------------|--------------|
G|--4~~~~----------|-----------------|----------------------|--------------|
D|--4~~~~----------|--2~~~~----------|--5~~~~---------------|--4~~~--2--0--|
A|--2~~~~----------|--2~~~~----------|--5~~~~---------------|--4~~~--------|
E|-----------------|--0~~~~----------|--3~~~~---------------|--2~~~--------|
Gtr 2
e|-----------------|-----------------|----------------------|--------------|
B|-----------------|-----------------|-----------------7h8--|--7~----------|
G|-----------------|-----------------|----------------------|--------------|
D|--//pickslide//--|-----------------|----------------------|--------------|
A|-----------------|--//pickslide//--|--//pickslide//-------|------//PS//--|
E|-----------------|-----------------|----------------------|--------------|


II. VERSE

Gtr 1
e|----------------------------------|----------------------------------|
B|----------------------------------|----------------------------------|
G|------4-----4-----4-----4-----4~--|------4-----4-----4-----4-----4~--|
D|------4-----4-----4-----4-----4~--|------4-----4-----4-----4-----4~--|
A|--2-2-2-2-2-2-2-2-2-2-2-2-2-2-2~--|------2-----2-----2-----2-----2~--|
E|----------------------------------|--0-0-0-0-0-0-0-0-0-0-0-0-0-0-0~--|
PM| . .   . .   . .   . .   . .     |  . .   . .   . .   . .   . .     |
(continued)
e|----------------------------------|----------------------------------|
B|----------------------------------|----------------------------------|
G|----------------------------------|----------------------------------|
D|------5-----5-----5-----5-----5~--|------4-----4-----4-----4-----4~--|
A|------5-----5-----5-----5-----5~--|------4-----4-----4-----4-----4~--|
E|--3-3-3-3-3-3-3-3-3-3-3-3-3-3-3~--|--2-2-2-2-2-2-2-2-2-2-2-2-2-2-2~--|
PM| . .   . .   . .   . .   . .     |  . .   . .   . .   . .   . .     |

Gtr 2
e|----------------------------------|----------------------------------|
B|----------------------------------|----------------------------------|
G|--x-x-4-x-x-6-x-x-6/7-x-6-x-x-4~--|--x-x-6-x-x-7-x-x-9-x-x-7-x-x-6~--|
D|--x-x-x-x-x-x-x-x-x-x-x-x-x-x-x---|--x-x-x-x-x-x-x-x-x-x-x-x-x-x-x---|
A|--x-x-2-x-x-4-x-x-4/5-x-4-x-x-2~--|--x-x-4-x-x-5-x-x-7-x-x-5-x-x-4~--|
E|----------------------------------|----------------------------------|
(continued)
e|---------------------------------------|----------------------------------|
B|---------------------------------------|----------------------------------|
G|--x-x-11-x-x-12-x-x-14-x-x-12-x-x-11~--|--x-x-9-x-x-11-x-x-6-x-x-x-9/11~--|
D|--x-x--x-x-x--x-x-x--x-x-x--x-x-x--x---|--x-x-x-x-x--x-x-x-x-x-x-x-x--x---|
A|--x-x--9-x-x-10-x-x-12-x-x-10-x-x--9~--|--x-x-7-x-x--9-x-x-4-x-x-x-7/-9~--|
E|---------------------------------------|----------------------------------|

^ ^ ^ Both guitars repeat, but on the second time it ends with:

Both guitars
e|-----------|
B|-----------|
G|-----------|
D|-----------|
A|--4--4--2--|
E|--2--2--0--|
PM| .  .  .  |


III. PRE-CHORUS

Gtr 1
e|----------------------------------|----------------------------------|
B|----------------------------------|----------------------------------|
G|--4-------------------------------|----------------------------------|
D|--4--4-4-4-4-4-4-4-4-4-4-4-4-4-4--|--2-------------------------------|
A|--2--2-2-2-2-2-2-2-2-2-2-2-2-2-2--|--2--2-2-2-2-2-2-2-2-2-2-2-2-2-2--|
E|----------------------------------|--0--0-0-0-0-0-0-0-0-0-0-0-0-0-0--|
PM|    . . . . . . . . . . . . . .  |     . . . . . . . . . . . . . .  |
(continued)
e|----------------------------------|----------------------------------|2x
B|----------------------------------|----------------------------------|
G|----------------------------------|----------------------------------|
D|--5-------------------------------|------3-----3-----4-----4-----4~--|
A|--5--5-5-5-5-5-5-5-5-5-5-5-5-5-5--|------3-----3-----4-----4-----4~--|
E|--3--3-3-3-3-3-3-3-3-3-3-3-3-3-3--|--1-1-1-1-1-1-2-2-2-2-2-2-2-2-2~--|
PM|    . . . . . . . . . . . . . .  |  . .   . .   . .   . .   . .     |

Gtr 2
e|-------------------------------|-------------------------------|
B|-------------------------------|-------------------------------|
G|--4----------------------------|--4----------------------------|
D|--4--4-4-4-4-4-4-4-4-----------|--4--4-4-4-4-4-4-4-4-----------|
A|--2--2-2-2-2-2-2-2-2--5--2--0--|--2--2-2-2-2-2-2-2-2--7--5--7--|
E|-------------------------------|-------------------------------|
PM|    . . . . . . . .           |     . . . . . . . .           |
(continued)
e|-------------------------------|------------------|2x
B|-------------------------------|------------------|
G|--7----------------------------|------------------|
D|--7--7-7-7-7-7-7-7-7-----------|------------------|
A|--5--5-5-5-5-5-5-5-5--9--7--5--|--------5--4~--7--|
E|-------------------------------|--5--7------------|


IV. CHORUS

Gtr 1
e|-----------|-------------|---------------|----------0~~--|
B|-----------|-------------|---------------|---------------|
G|-----------|-------7--9--|------0-----0--|-------0-------|
D|--5~~~--5--|--4~~~-x--x--|----4-----4----|-----4---------|
A|--5~~~--5--|--4~~~-5--7--|--2-----4------|---------------|
E|--3~~~--3--|--2~~~-------|---------------|--3------------|
(continued)
e|-----------|-------------|
B|-----------|-------------|
G|-----------|-------------|
D|--5~~~--5--|--7~~~-7--7--|
A|--5~~~--5--|--4~~~-5--7--|
E|--3~~~--3--|--5~~~-5--7--|

Gtr 2
e|-----------|--------------|--------------|---------<5>~~--|
B|-----------|--------------|--------------|----------------|
G|--4~~~--4--|--6~~~--6--6--|--------------|-----<4>--------|
D|--x-----x--|--x-----x--x--|--------------|----------------|
A|--2~~~--2--|--4~~~--4--4--|--2~~~--4~~~--|----------------|
E|-----------|--------------|--------------|--3-------------|
(continued)
e|-----------|--------------|
B|-----------|--------------|
G|-----------|--6~~~--7--9--|
D|--5~~~--5--|--x-----x--x--|
A|--5~~~--5--|--4~~~--5--7--|
E|--3~~~--3--|--------------|

[Repeat VERSE, PRE-CHORUS, & CHORUS]

V. BRIDGE

Gtr 1
e|------------|
B|------------|(just repeat)
G|------------|
D|--4--4-4-4--|
A|--2--2-2-2--|
E|------------|
Gtr 2
e|-----------------|-----------------|-----------------------------------|
B|-----------------|-----------------|--<5>-<7>--------------------------|
G|-----------------|-----------------|----------<5>-<7>---------<5>------|
D|--//pickslide//--|--//pickslide//--|------------------<4>-<7>-----<7>--|
A|-----------------|-----------------|-----------------------------------|
E|-----------------|-----------------|-----------------------------------|
(continued)
e|---------------------------------8b~~--|
B|--<5>-<7>------------------------------|
G|----------<5>-<7>---------<5>~~--------|
D|------------------<4>-<7>--------------|
A|---------------------------------------|
E|---------------------------------------|


VI. BREAKDOWN

Both guitars
e|------------------------------------|4x
B|------------------------------------|(ends with the riffs below)
G|--4--4-4-4-4-4--4-4-4-4-4--4-4-4-4--|
D|--4--4-4-4-4-4--4-4-4-4-4--4-4-4-4--|
A|--2--2-2-2-2-2--2-2-2-2-2--2-2-2-2--|
E|------------------------------------|
(continued)
e|----1st----|-----2nd----|----3rd-----|----4th----|
B|-----------|------------|------------|----all----|
G|--7--6--2--|--7/9\7--6--|--6/7\6--2--|---palm----|
D|--7--6--2--|--x-x-x--x--|--x-x-x--2--|---muted---|
A|--5--4--0--|--5/7\5--4--|--4/5\4--0--|--2--2--2--|
E|-----------|------------|------------|--0--0--0--|

Then, (“and we’ll all dance along to the tune of your death...”)

Gtr 1
e|--------|--------|--------|--------|--------|---------------|---------2--|
B|--------|--------|--------|--------|--------|---------------|------------|
G|--------|--------|--------|--------|--------|------0-----0--|------0-----|
D|--5~~~--|--7~~~--|--9~~~--|--5~~~--|--7~~~--|----4-----4----|----4-------|
A|--5~~~--|--7~~~--|--9~~~--|--5~~~--|--7~~~--|--2-----0------|------------|
E|--3~~~--|--5~~~--|--7~~~--|--3~~~--|--5~~~--|---------------|--3---------|
Gtr 2
e|--------|--------|--------|----------------|--------|--------|(cont. below)
B|--------|--------|--------|----------------|--------|--------|
G|--4~~~--|--6~~~--|--11-9--|--11-11-9-11-9--|--4~~~--|--6~~~--|
D|--x-----|--x-----|---x-x--|---x--x-x--x-x--|--x-----|--x-----|
A|--2~~~--|--4~~~--|---9-7--|---9--9-7--9-7--|--2~~~--|--4~~~--|
E|--------|--------|--------|----------------|--------|--------|
(continued)
e|--------------------<5>~~--|
B|---------------------------|
G|----------------<4>--------|
D|---------------------------|
A|--2~~--4~~-----------------|
E|------------3~-------------|


VII. INTERLUDE

Gtr 1
e|---------------------------|---------------------------|
B|---------------------------|---------------------------|
G|---------------------------|---------------------------|
D|---------------------------|---------------------------|
A|--4/5-5-5-5-5-5-5-5-5-5-5--|--4/5-5-5-5-5-5-5\4-4-4-4--|
E|--3-3-3-3-3-3-3-3-3-3-3-3--|--5-5-5-5-5-5-5-5-5-5-5-5--|
(continued)
e|---------------------------|---------------------------|
B|---------------------------|---------------------------|
G|---------------------------|---------------------------|
D|---------------------------|---------------------------|
A|--4/5-5-5-5-5-5-5\4-4-4-4--|--4/5-5-5-5-5-5-5\4-4-4-4--|
E|--7-7-7-7-7-7-7-7-7-7-7-7--|--3-3-3-3-3-3-3-3-3-3-3-3--|
(continued)
e|---------------------------|---------------------------|
B|---------------------------|---------------------------|
G|---------------------------|---------------------------|
D|---------------------------|---------------------------|
A|--4/5-5-5-5-5-5-5\4-4-4-4--|--4/5-5-5-5-5-5-5\4-4-4-4--|
E|--3-3-3-3-3-3-3-3-3-3-3-3--|--5-5-5-5-5-5-5-5-5-5-5-5--|
(continued)
e|---------------------------|---------------------------|2x
B|---------------------------|---------------------------|
G|---------------------------|---------------------------|
D|---------------------------|---------------------------|
A|--4/5-5-5-5-5-5-5\4-4-4-4--|--4/5-5-5-5-5-5-5\4-4-4-4--|
E|--7-7-7-7-7-7-7-7-7-7-7-7--|--3-3-3-3-3-3-3-3-3-3-3-3--|

Gtr 2
e|-------------------------|-------------------------|-----------------------|
B|-------------------------|-------------------------|-----------------------|
G|-------------------------|-------------------------|-----------------------|
D|-------------------------|-------------------------|-----------------------|
A|--5--5-5-5-5-5--5-5-5-5--|--4--4-4-4-4-4--4-4-4-4--|--2--2-2-2-2-2--2-2-0--|
E|-------------------------|-------------------------|-----------------------|
(continued)
e|-------------------------|--------------------|-------------------------|
B|-------------------------|--------------------|-------------------------|
G|-------------------------|--------------------|-------------------------|
D|-------------------------|--------------------|-------------------------|
A|--2--2-2-2-2-2--2-2-2-2--|--5--5-5-5-5-5-7-7--|--4--4-4-4-4-4--4-4-4-4--|
E|-------------------------|--------------------|-------------------------|
(continued)
e|-----------------------|---------------|2x
B|-----------------------|---------------|
G|-----------------------|---------------|
D|-----------------------|---------------|
A|--2--2-2-2-2-2--2-2-0--|--0-2-4-2~--4--|
E|-----------------------|---------------|

Then, this is when Gtr 3 comes in :)
Gtr 3 (goes louder and louder and louder ^_^)
e|-------5x-------|---------------|
B|----------------|---------------|
G|--18-19-18--16--|--6-7-9-7-9-7--|
D|---x--x--x---x--|--x-x-x-x-x-x--|
A|--16-17-16--14--|--4-5-7-5-7-5--|
E|----------------|---------------|


VIII. “OUTRO CHORUS THING”

Gtr 1
e|-------------------------|-------------------------|
B|-------------------------|-------------------------|
G|-------------------------|-------------------------|
D|--5--5-5-5-5-5--5-5-5-5--|--7--7-7-7-7-7--7-7-7-7--|
A|--5--5-5-5-5-5--5-5-5-5--|--7--7-7-7-7-7--7-7-7-7--|
E|--3--3-3-3-3-3--3-3-3-3--|--5--5-5-5-5-5--5-5-5-5--|
(continued)
e|-------------------------|-------------------------|(?) times
B|-------------------------|-------------------------|(this is what it plays
G|-------------------------|-------------------------|from now on ^^)
D|--9--9-9-9-9-9--9-9-9-9--|--5--5-5-5-5-5--5-5-5-5--|
A|--9--9-9-9-9-9--9-9-9-9--|--5--5-5-5-5-5--5-5-5-5--|
E|--7--7-7-7-7-7--7-7-7-7--|--3--3-3-3-3-3--3-3-3-3--|

Gtr 2
e|-----3x-----|------------|-----2x-----|------3x-------|
B|------------|------------|------------|---------------|
G|------------|------------|------------|---------------|
D|------------|------------|------------|---------------|
A|--4-5-4-2~--|--4-5-7-5~--|--4-5-4-2~--|--0h2-2-2-2-2--|
E|------------|------------|------------|---------------|
(continued)
e|---------------------------|----------------------------|
B|---------------------------|----------------------------|
G|--6-6-6-6-6-6-7-7-7-7-7-7--|--7-7-9-9-9-9-111111111111--|
D|--x-x-x-x-x-x-x-x-x-x-x-x--|--x-x-x-x-x-x--x-x-x-x-x-x--|
A|--4-4-4-4-4-4-5-5-5-5-5-5--|--5-5-7-7-7-7--9-9-9-9-9-9--|
E|---------------------------|----------------------------|
(continued)
e|---------------------------|---------------------|---------------|
B|---------------------------|---------------------|---------------|
G|--111112121212-14-12-1111--|--11111111-7-7-9-11--|--9-9-9-9-9-9--|
D|---x-x-x-x-x-x--x--x--x-x--|---x-x-x-x-x-x-x--x--|--x-x-x-x-x-x--|
A|---9-910101010-12-10--9-9--|---9-9-9-9-5-5-7--9--|--7-7-7-7-7-7--|
E|---------------------------|---------------------|---------------|
(continued) “cause I tried... but I lied...”
e|---------------------------|-----------------------------|
B|---------------------------|-----------------------------|
G|--6/7-7-7-7-7-7/9-9-9-9-9--|--9/111111111111/1212121212--|
D|--x-x-x-x-x-x-x-x-x-x-x-x--|--x--x-x-x-x-x-x--x-x-x-x-x--|
A|--4/5-5-5-5-5-5/7-7-7-7-7--|--7/-9-9-9-9-9-9/1010101010--|
E|---------------------------|-----------------------------|
(continued) “mwaaaaaaaaaaaaaarrgggggggghhhhhh...”
e|----------------------------|----------------------------|
B|----------------------------|----------------------------|
G|--141414141414141414141414--|--121212121212111111111111--|
D|---x-x-x-x-x-x-x-x-x-x-x-x--|---x-x-x-x-x-x-x-x-x-x-x-x--|
A|--121212121212121212121212--|--101010101010-9-9-9-9-9-9--|
E|----------------------------|----------------------------|
(continued) “I tried... I tried...” - Gtr 3 enters here, see below.
e|-----------------------------------------------------------|
B|-----------------------------|-----------------------------|
G|--14/1616161616161616161616--|--16/1818181818181818181818--|
D|---x--x-x-x-x-x-x-x-x-x-x-x--|---x--x-x-x-x-x-x-x-x-x-x-x--|
A|--12/1414141414141414141414--|--14/1616161616161616161616--|
E|-----------------------------|-----------------------------|
(continued)
e|----------------------------|----------------------------|
B|----------------------------|----------------------------|
G|--191919191919191919191919--|--191919191919191919191919--|
D|---x-x-x-x-x-x-x-x-x-x-x-x--|---x-x-x-x-x-x-x-x-x-x-x-x--|
A|--171717171717171717171717--|--171717171717171717171717--|
E|----------------------------|----------------------------|
(continued)
e|-----------------------------------------------------------|
B|-----------------------------|-----------------------------|
G|--14/1616161616161616161616--|--16/1818181818181818181818--|
D|---x--x-x-x-x-x-x-x-x-x-x-x--|---x--x-x-x-x-x-x-x-x-x-x-x--|
A|--12/1414141414141414141414--|--14/1616161616161616161616--|
E|-----------------------------|-----------------------------|
(continued)
e|------------------------------|-----------------------------|
B|------------------------------|-----------------------------|
G|--18/191919191918/1919191919--|--18/1919191919212121212121--|
D|---x--x-x-x-x-x-x--x-x-x-x-x--|---x--x-x-x-x-x-x-x-x-x-x-x--|
A|--16/171717171716/1717171717--|--16/1717171717191919191919--|
E|------------------------------|-----------------------------|

Gtr 3 - enters on “I tried... I tried...” part
e|-----3x-----|------------|-----2x-----|---------------------------|
B|------------|------------|------------|---------------------------|
G|--6-7-6-4~--|--6-7-9-7~--|--6-7-6-4~--|--2-4-4-4-4-4-4-6-6-6-6-6--|
D|--x-x-x-x---|--x-x-x-x---|--x-x-x-x---|--x-x-x-x-x-x-x-x-x-x-x-x--|
A|--4-5-4-2~--|--4-5-7-5~--|--4-5-4-2~--|--0-2-2-2-2-2-2-4-4-4-4-4--|
E|------------|------------|------------|---------------------------|
(continued)
e|---------------------------|
B|---------------------------|
G|--6-7-7-7-7-7-7-9-9-9-9-9--|
D|--x-x-x-x-x-x-x-x-x-x-x-x--|
A|--4-5-5-5-5-5-5-7-7-7-7-7--|
E|---------------------------|


IX. SOLO

Gtr 2
e|--------17-----------15-----|--------14------------------|3x
B|--14h15----15--14h15----14--|--14h15----15--14h15-17-14--|
G|----------------------------|----------------------------|
D|----------------------------|----------------------------|
A|----------------------------|----------------------------|
E|----------------------------|----------------------------|
(continued)
e|--14-14-15-14--|
B|---------------|
G|--(tremolo)----|
D|---------------|
A|---------------|
E|---------------|


X. OUTRO

Gtr 1
e|---------|
B|---------|
G|---------|
D|--5~~~~--|
A|--5~~~~--|
E|--3~~~~--|
Gtr 2
e|--14~~~--|--21--20--21~~--|
B|---------|----------------|
G|---------|----------------|
D|---------|----------------|
A|---------|----------------|
E|---------|----------------|
Gtr 3
e|---------|-----------|------------|---------|--------|
B|---------|-----------|------------|---------|--------|
G|--11-12--|--9-11-11--|--9-11-9-7--|--12-14--|--9-11--|
D|---x--x--|--x--x--x--|--x--x-x-x--|---x--x--|--x--x--|
A|---9-10--|--7--9--9--|--7--9-7-5--|--10-12--|--7--9--|
E|---------|-----------|------------|---------|--------|

            
            
Suggest correction
Creating personal tab
Creating personal tab
You can edit any tab online and save it as your Personal.

You can edit, replace or remove any tab part or add personal notes – all changes will be seen only by you.

Personal tabs can be accessed anytime from any device, even offline.
Learn more »
comments
print report bad tab
9 comments total. Showing first comments.
0 reply
geminivenom 10 Aug 23, 2006 03:39 AM

well done - now i got some parts which the ver2 of this song lacked... 5 stars!!

+1 reply
Scorpal-X 10 Aug 30, 2006 12:41 AM

First of all: 5 stars! But there's no solo in this song, there's something we COULD call a solo, but in a solo there's no lyrics!
Awesome tab man, you did it!

0 reply
f1f2 774 Aug 30, 2006 03:54 AM

aw ok i'm sorry for calling that part as a solo.., that's the way i recognize it though,,, tnx for rating it 5 stars..,

guest
You may want to rate the tab now too:
select rating
Wanna post a correction for this tab? Suggest correction