Oops, an error
Loading. Please wait.
We have an official Im Not Okay I Promise tab made by UG professional guitarists. Check out the tab »
×
22,784 views 21 this week
5 commentsread comments
1 2 3 4 5
x 14
add to favorites
×
Save as Personal and add changes to this tab that will be seen only by you. Learn more ›
×
You can save this tab as Personal to edit and correct it or add notes. All changes will be seen only by you. Learn more »
launch autoscroll
font size
0
reset
guitar tuner
backing track
0:00
0:00
edit
Autoscroll
slow
fast
+/-
esc
set tempo
stop
Author
Intro
G:----------------|
D:----------------|
A:-55555555555555-|
E:----------------|
Intro/Chorus
G:-------------------------------------------------------------------|
D:-------------------------------------------------------------------|
A:-55555555555555555555555555555555-22222222222222222222222222222222-|
E:-------------------------------------------------------------------|

G:-------------------------------------------------------------------|
D:-------------------------------------------------------------------|
A:-------------------------------------------------------------------|
E:-33333333333333333333333333333333-55555555555555555555555555555555-|

Verse
G:-------------------------------------------------------------------|
D:-------------------------------------------------------------------|
A:-55555555555555555555555555555555-22222222222222222222222222222222-|
E:-------------------------------------------------------------------|

G:-------------------------------------------------------------------|
D:-------------------------------------------------------------------|
A:-77777777777777777777777777777777----------------------------------|
E:----------------------------------55555555555555555555555555555555-|

Chorus
Verse
Chorus

Guitar Solo
G:--------------------------|
D:--------------------------| 
A:--------------------------| x3
E:-5-5-5-5-3-3-3-3-00000000-|

G:------------------------------------------------------------------r---|
D:------------------------------------------------------------------e---|
A:------------------------------------------------------------------s---|
E:-5555555555555555555555555555555555555555555555555555555555555555-t-5~|

Pre-Chorus
G:-----------------r-|
D:-----------------e-|
A:-----------------s-|
E:-5-5-5-5-5-5-5-5-t-|

Chorus

Outro
G:-----|
D:-----|
A:--5~-|
E:-----|


Well, there it is.  Hopefully you enjoy it.  The song is pretty boring to play by
yourself, but if you jam with your band or even along to the CD it sounds good.

            
            
Suggest correction
Creating personal tab
Creating personal tab
You can edit any tab online and save it as your Personal.

You can edit, replace or remove any tab part or add personal notes – all changes will be seen only by you.

Personal tabs can be accessed anytime from any device, even offline.
Learn more »
comments
print report bad tab
5 comments total. Showing first comments.
0 reply
teo_huat 81 Dec 03, 2004 07:00 PM

are you sure th solo part is right????

0 reply
fourstringpunk 192 Dec 19, 2004 07:00 PM

theres a kinda quiet part b4 he whispers "im ok". i think its-
----------------------------------------------------------------------
-------------------------------------------------7-7-7-7-7-7-7-7------
-----------------4-4-4-4-4-4-4-4-7-7-7-7-7-7-7-7----------------------
-5-5-5-5-5-5-5-5------------------------------------------------------

I think thats right but im not sure

0 reply
HorridxHopes 191 Dec 30, 2004 07:00 PM

The solo sounds alright when I play it, it could be wrong though.

and, I just don't play during the quiet part

guest
You may want to rate the tab now too:
select rating
Wanna post a correction for this tab? Suggest correction