Oops, an error
Loading. Please wait.

Kill All Your Friends tab

version 1
version 1

Whole song

Interactive

36,902 views 39 this week
27 commentsread comments
1 2 3 4 5
x 36
add to favorites
×
Save as Personal and add changes to this tab that will be seen only by you. Learn more ›
×
You can save this tab as Personal to edit and correct it or add notes. All changes will be seen only by you. Learn more »
launch autoscroll
font size
0
reset
how to read this tab
guitar tuner
edit
Autoscroll
slow
fast
+/-
esc
set tempo
stop
Song Title: Kill All Your Friends
Artist: My Chemical Romance
Album: Famous Last Words (Single)

In this song, well, it’s very hard to organize the order where the guitars start to 
especially in the verses :)
So I suggest you must figure the timing for yourself. :)

Tuning: Standard

Ins.:
        Gtr 1 – Frank Iero
        Gtr 2 – Ray Toro
        Gtr 3 - ?? (overdubbed)

I. INTRO (0:09 – 0:18)

Gtr 2
e|-----------------10~-------------------------|2x
B|-----12----12--------12~-----12--------------|
G|--12----12----12---------11~----12-11----11--|
D|--------------------------------------12-----|
A|---------------------------------------------|
E|---------------------------------------------|


II. VERSE (0:18 – 0:55)

(Gtr 2 carries on playing the INTRO  times ^^)

Gtr 1 (after he says, “but the past ain’t through with you”)
e|-------------------|
B|-------------------|
G|-------------------|
D|--9-9~--9-9-7-5~~--|
A|--9-9---9-9-7-5~~--|
E|-------------------|

Then, after that ^^^ part:

Gtr 1 (right speaker)
(after he says, “tell who do you wanna be”)
e|--------------------------------|
B|--------------------------------|
G|--16-17-19-16~~--17-16-14~--12--|
D|---x--x--x--x-----x--x--x----x--|
A|--14-14-17-14~~--14-14-12---10--|
E|--------------------------------|

Gtr 2 (left speaker)
e|---------------------------------------------------|2x
B|---------------------------------------------------|alternate
G|--12-12-12-12-12-12-12-12-11-11-11-11-11-12/14\12--|endings
D|---x--x--x--x--x--x--x--x--x--x--x--x--x--x--x--x--|below
A|--10-10-10-10-10-10-10-10--9--9--9--9--9-10/12\10--|
E|---------------------------------------------------|
(Gtr 2 - first ending)
e|---------------------------------------------------|
B|---------------------------------------------------|
G|--12-12-12-12-12-12-12-12-11-11-11-11-11-11-11-11--|
D|---x--x--x--x--x--x--x--x--x--x--x--x--x--x--x--x--|
A|--10-10-10-10-10-10-10-10--9--9--9--9--9--9--9--9--|
E|---------------------------------------------------|
(Gtr 2 - second ending)
e|-------------------------------------------------|
B|-------------------------------------------------|
G|--12-12-12-12-12-12-12-12-11-11-11-11-11-12/14~--|
D|---x--x--x--x--x--x--x--x--x--x--x--x--x--x--x---|
A|--10-10-10-10-10-10-10-10--9--9--9--9--9-10/12~--|
E|-------------------------------------------------|


III. CHORUS (0:56 – 1:28)
(I’m still working on the lead parts here, coz I can’t hear it clearly)

Both guitars (for now)
e|-----------------------------------|-----------------------------------|3x
B|-----------------------------------|-----------------------------------|
G|--5-5-5-5-5-5-5-5-7-7-7-7-7-7-7-7--|------------------4-4-4-4-4-4-4-4--|
D|--5-5-5-5-5-5-5-5-7-7-7-7-7-7-7-7--|--5-5-5-5-5-5-5-5-4-4-4-4-4-4-4-4--|
A|--3-3-3-3-3-3-3-3-5-5-5-5-5-5-5-5--|--5-5-5-5-5-5-5-5-2-2-2-2-2-2-2-2--|
E|-----------------------------------|--3-3-3-3-3-3-3-3------------------|

On the 4th time:

e|--------------------------------|
B|--------------------------------|
G|--5-5-5-5-5-5-5-5-7---7~~-------|
D|--5-5-5-5-5-5-5-5-7---7~~--(5)--|
A|--3-3-3-3-3-3-3-3-5---5~~--(5)--|
E|---------------------------(3)--|

(Bass line comes in)

[REPEAT VERSE – (1:38 – 2:14)]
[REPEAT CHORUS – (2:15 – 2:47)]


IV. BRIDGE (2:48 – 3:33)

Gtr 1 (start on 2:48, all palm muted, figure the correct strumming)
e|-----------------------------------|-----------------------------------|2x
B|-----------------------------------|-----------------------------------|
G|-----------------------------------|-----------------------------------|
D|------------------4-4-4-4-4-4-4-4--|--9-9-9-9-9-9-9-9-7-7-9-9-7-7-7-7--|
A|--5-5-5-5-5-5-5-5-2-2-2-2-2-2-2-2--|--7-7-7-7-7-7-7-7-5-5-5-5-5-5-5-5--|
E|--3-3-3-3-3-3-3-3------------------|-----------------------------------|
(continued)
e|-----------------------------------|-----------------------------------|2x
B|-----------------------------------|-----------------------------------|
G|-----------------------------------|-----------------------------------|
D|--5-5-5-5-5-5-5-5-7-7-7-7-7-7-7-7--|--9-9-9-9-9-9-9-9---------4-4-4-4--|
A|--3-3-3-3-3-3-3-3-5-5-5-5-5-5-5-5--|--7-7-7-7-7-7-7-7-5-5-5-5-2-2-2-2--|
E|-----------------------------------|------------------3-3-3-3----------|

Gtr 2 (start on 2:57)
e|-------(3x)----------|--------------|repeat
B|---------------------|--------------|many
G|---------------------|--------------|times
D|--9-9-99-9/10-9-7-9--|--------------|
A|---------------------|--9-10-12-10--|
E|---------------------|--------------|

Gtr 3 (start on 3:16, but you can’t hear it in the song yet)
e|------------------------------------|------------------------------------|
B|------------------------------------|------------------------------------|
G|--12121212121212121212121212121212--|--14141414141414141414141414141414--|
D|---x-x-x-x-x-x-x-x-x-x-x-x-x-x-x-x--|---x-x-x-x-x-x-x-x-x-x-x-x-x-x-x-x--|
A|--10101010101010101010101010101010--|--12121212121212121212121212121212--|
E|------------------------------------|------------------------------------|
(continued)
(Now this is the part you hear in 3:20)
e|------------------------------------|------------------------------------|2x
B|------------------------------------|------------------------------------|
G|--16161616161616161414141412121212--|--17171717161616161414141412121212--|
D|---x-x-x-x-x-x-x-x-x-x-x-x-x-x-x-x--|---x-x-x-x-x-x-x-x-x-x-x-x-x-x-x-x--|
A|--14141414141414141212121210101010--|--15151515141414141212121210101010--|
E|------------------------------------|------------------------------------|

(On the second repeat of Gtr 3, Gtr 1 starts playing this:)
Gtr 1 (start on 3:25)
e|-----------------------------------|-----------------------------------|
B|-----------------------------------|-----------------------------------|
G|--5-5-5-5-5-5-5-5-7-7-7-7-7-7-7-7--|--9-9-9-9-9-9-9-9------------------|
D|--5-5-5-5-5-5-5-5-7-7-7-7-7-7-7-7--|--9-9-9-9-9-9-9-9-5-5-5-5-5-5-5-5--|
A|--3-3-3-3-3-3-3-3-5-5-5-5-5-5-5-5--|--7-7-7-7-7-7-7-7-5-5-5-5-5-5-5-5--|
E|-----------------------------------|------------------3-3-3-3-3-3-3-3--|

[REPEAT CHORUS – (3:34 – 4:06) -There is a variation, see below]

Gtr 1 and 2 (start on 3:53)
e|-----------------------------------|---------------------------|
B|-----------------------------------|---------------------------|
G|--5-5-5-5-5-5-5-5-7-7-7-7-7-7-7-7--|---------------------------|
D|--5-5-5-5-5-5-5-5-7-7-7-7-7-7-7-7--|--5~--4~--2-2-2-2-2-2-2-2--|
A|--3-3-3-3-3-3-3-3-5-5-5-5-5-5-5-5--|--5~--5~--2-2-2-2-2-2-2-2--|
E|-----------------------------------|--3~--2~--0-0-0-0-0-0-0-0--|
(continued)
e|--------------------------------|
B|--------------------------------|
G|--5-5-5-5-5-5-5-5-7---7~~-------|
D|--5-5-5-5-5-5-5-5-7---7~~--(5)--|
A|--3-3-3-3-3-3-3-3-5---5~~--(5)--|
E|---------------------------(3)--|

Gtr 3 (start on 3:57)
e|------------------------------------|------------------------------------|
B|------------------------------------|------------------------------------|
G|--19191919191919191717191917171616--|--16161616161616161414161614141212--|
D|---x-x-x-x-x-x-x-x-x-x-x-x-x-x-x-x--|---x-x-x-x-x-x-x-x-x-x-x-x-x-x-x-x--|
A|--17171717171717171515171715151414--|--14141414141414141212141412121010--|
E|------------------------------------|------------------------------------|
(continued)
e|------------------------------------|-------------|
B|------------------------------------|-------------|
G|--12121212121212121212121212121212--|--16---11~~--|
D|---x-x-x-x-x-x-x-x-x-x-x-x-x-x-x-x--|---x----x----|
A|--10101010101010101010101010101010--|--14----9~~--|
E|------------------------------------|-------------|


V. OUTRO (4:07 – 4:17)

(Gtr 1 ends with a C power chord and Gtr 3 with a G)

Gtr 2
e|-------------------------------------------------------|
B|-------------------------------------------------------|
G|-------------------------------------------------------|
D|-----------9-10~-9-10-9-------------9------------------|
A|--10~~--12--------------12-10~~--12---9~--10-12--10~~--|
E|-------------------------------------------------------|

            
            
Suggest correction
Creating personal tab
Creating personal tab
You can edit any tab online and save it as your Personal.

You can edit, replace or remove any tab part or add personal notes – all changes will be seen only by you.

Personal tabs can be accessed anytime from any device, even offline.
Learn more »
comments
print report bad tab
27 comments total. Showing first comments.
0 reply
f1f2 774 Jan 27, 2007 01:48 AM

oh nooo!!! i found some mistakes!
the intro and outro should be the ff.: (respectively)

Gtr 2
e|-----------------10~----------------------|2x
B|-----12----12--------12~-----10-----------|
G|--12----12----12---------11~----12-11-----|
D|--------------------------------------12--|
A|------------------------------------------|
E|------------------------------------------|

and

Gtr 2
e|-------------------------------------------------------|
B|-------------------------------------------------------|
G|-------------------------------------------------------|
D|-----------9-10~-9-10-9-------------9------------------|
A|--10~~--12--------------12-10~~--12---9~--10-12--10~~--|
E|-------------------------------------------------------|

SORRY!!

0 reply
glennthrower 30 Jan 27, 2007 03:10 AM

cool cool, is the edited one pending

0 reply
gdrocks2230 347 Jan 27, 2007 06:21 AM

duuuuude.... thank you thank you thank you!!!!!! not only for tabbing this song out (cause it's amazing) and i was gonna but now i dont have to... but also for writing THE WRITE TITLE. the other tabs to this song are actually the tabs to blood.

thanks again!

guest
You may want to rate the tab now too:
select rating
Wanna post a correction for this tab? Suggest correction