Oops, an error
Loading. Please wait.

Mama bass

version 4
version 4

Whole song

  • I think this version is kept mostly clear and simple, so I hope it's helpful.
1,366 views 3 this week
no commentswrite comment
1 2 3 4 5
x 5
add to favorites
×
Save as Personal and add changes to this tab that will be seen only by you. Learn more ›
×
You can save this tab as Personal to edit and correct it or add notes. All changes will be seen only by you. Learn more »
launch autoscroll
font size
0
reset
guitar tuner
edit
Autoscroll
slow
fast
+/-
esc
set tempo
stop
About this tab version
I think this version is kept mostly clear and simple, so I hope it's helpful. Was this info helpful? Yes No
[Verse 1A]
no bass

[Verse 1B]("Oh well now mama, we're all gonna die...")
G|-----------------|-----------------|-----------------|-----------------|
D|-----------------|-----------------|-----------------|-----------------|
A|-----2-------2---|-----2-------2---|-----2-------2---|-2-------2-------|
E|-0-------0-------|-0-------0-------|-0-------0-------|-----2-------2---|

G|-----------------|-----------------|-----------------|-----------------|
D|-----------------|-----------------|-----------------|-----------------|
A|---------2-------|-------------2---|-----2---2-------|-----------------|
E|-5---0-------2---|-3---3-2-0-------|-0-----------3-2-|-0---------------|

[Chorus 1] 
G|-----------------|-----------------|-----------------|-----------------|
D|-----------------|-----------------|-----------------|-----------------|
A|-3-3-3-3-3-3-3-3-|-5-5-5-5-5-7-5-0-|-----------------|-3-3-3-3-3-5-3-0-|
E|-----------------|-----------------|-3-3-3-3-3-3-3-3-|-----------------|

G|-----------------|-----------------|-----------------|-----------------|
D|-----------------|-----------------|-----------------|-----------------|
A|-----------------|-2-2-2-2-2-2-2-2-|-----------------|---------------2-|
E|-1-1-1-1-1---1---|-----------------|-0-------2-------|-3-------0-2-3---|

G|-----------------|-----------------|
D|-----------------|-----------------|
A|-3-------6-------|-7---------------|
E|-----------------|-----------------|

[Verse 2A]
no bass

[Verse 2B]("Well mother what the war did...")
G|-----------------|-----------------|-----------------|-----------------|
D|-----------------|-----------------|-----------------|-----------------|
A|-----2-------2---|-----2-------2---|-----2-------2---|-2-------2-------|
E|-0-------0-------|-0-------0-------|-0-------0-------|-----2-------2---|

G|-----------------|-----------------|-----------------|-----------------|
D|-----------------|-----------------|-----------------|-----------------|
A|---------2-------|-------------2---|-----2---2-------|-----------------|
E|-5---0-------2---|-3---3-2-0-------|-0-----------3-2-|-0---------------|

[Chorus 2]
G|-----------------|-----------------|-----------------|-----------------|    |
D|-----------------|-----------------|-----------------|-----------------|    |
A|-3-3-3-3-3-3-3-3-|-5-5-5-5-5-7-5-0-|-----------------|-3-3-3-3-3-5-3-0-|    |
E|-----------------|-----------------|-3-3-3-3-3-3-3-3-|-----------------|    |
                                                                              | x2
G|-----------------|-----------------|-----------------|-----------------|    |
D|-----------------|-----------------|-----------------|-----------------|    |
A|-----------------|-2-2-2-2-2-2-2-2-|-----------------|---------------2-|    |
E|-1-1-1-1-1---1---|-----------------|-0-------2-------|-3-------0-2-3---|  __|

G|-----------------|-----------------|
D|-----------------|-----------------|
A|-3-------6-------|-----------------|
E|-----------------|-0---------------|

[Verse 3]("Mama we all go to hell...")
G|-----------------|-----------------|-----------------|-----------------|
D|-----------------|-----------------|-----------------|-----------------|
A|-----2-------2---|-----2-------2---|-----2-------2---|-2-------2-------|
E|-0-------0-------|-0-------0-------|-0-------0-------|-----2-------2---|

G|-----------------|-----------------|-----------------|-----------------|
D|-----------------|-----------------|-----------------|-----------------|
A|---------2-------|-------------2---|-----2---2-------|-----------------|
E|-5---0-------2---|-3---3-2-0-------|-0-----------3-2-|-0---------------|

[After-Verse]
G|-----------------|-----------------|-----------------|-----------------|
D|-----------------|-----------------|-----------------|-----------------|
A|-----------------|-----------------|-----------------|-----------------|
E|-0---0---5---7---|-0---0---5---7---|-0---0---5---7---|-0---0---5---7---|

G|-----------------|-----------------|-----------------|-----------------|
D|-----------------|-----------------|-----------------|-----------------|
A|-----------------|-----------------|-----------------|-----------------|
E|-7---8---5-------|-7---8---6-------|-7---8---5-------|-7---5---3---2---|

G|-----------------|-----------------|-----------------|-----------------|
D|-----------------|-----------------|-----------------|-----------------|
A|-----------------|-----------------|-----------------|-----------------|
E|-0---0---5---7---|-0---0---5---7---|-0---0---5---7---|-0---0---5---7---|

G|-----------------|-----------------|-----------------|-----------------|
D|-----------------|-----------------|-----------------|-----------------|
A|-----------------|-----------------|-----------------|-----------------|
E|-7---8---5-------|-7---8---6-------|-7---8---5-------|-7---------------|

G|-----------------|-----------------|-----------------|-----------------|
D|-----------------|-----------------|-----------------|-----------------|
A|-----------------|-----------------|-----------------|-----------------|
E|-5---------------|-3---------------|-2---------------|-----------------|

[Bridge](bass comes in at 3:35)
G|-------------------------|-------------------------|
D|-------------------------|-------------------------|
A|-------------------------|-------------------------|
E|-5---5---5---7---7---7---|-3---3---3---0---0---0---|

G|-------------------------|-------------------------|
D|-------------------------|-------------------------|
A|-------------------------|-------------------------|
E|-0---0---0---6---6---6---|-7---7---7---7---7---7---|

G|-------------------------|-------------------------|
D|-------------------------|-------------------------|
A|-----7---7-------7---7---|-----7---7-------7---7---|
E|-0-----------0-----------|-0-----------0-----------|

G|-------------------------|-------------------------|
D|-----------------7---7---|-----9---9-------9---9---|
A|-----7---7---------------|-------------------------|
E|-0-----------5-----------|-7-----------7-----------|

G|-------------------------|-------------------------|
D|-----7---7-------9---9---|-----5---5---------------|
A|-------------------------|-----------------7---7---|
E|-5-----------7-----------|-3-----------0-----------|

G|-------------------------|-------------------------|
D|-----------------8---8---|-------------------------|
A|-----7---7---------------|-------------------------|
E|-0-----------6-----------|-7-----------7-----------|

G|-------------------------|-------------------------|
D|-------------------------|-------------------------|
A|-----7---7-------7---7---|-----7---7-------7---7---|
E|-0-----------0-----------|-0-----------0-----------|

G|-------------------------|-------------------------|
D|-----------------7---7---|-----9---9-------9---9---|
A|-----7---7---------------|-------------------------|
E|-0-----------5-----------|-7-----------7-----------|

G|-------------------------|-------------------------|
D|-----7---7-------9---9---|-----5---5---------------|
A|-------------------------|-----------------7---7---|
E|-5-----------7-----------|-3-----------0-----------|

G|-------------------------|-------------------------|
D|-----------------9---9---|-------------------------|
A|-----7---7---------------|-------------------------|
E|-0-----------7-----------|-0-----------0-----------|

G|-------------------------|
D|-------------------------|
A|-------------------------|
E|-0-----------0-----------|

            
            
Suggest correction
Creating personal tab
Creating personal tab
You can edit any tab online and save it as your Personal.

You can edit, replace or remove any tab part or add personal notes – all changes will be seen only by you.

Personal tabs can be accessed anytime from any device, even offline.
Learn more »
comments
print report bad tab
guest
You may want to rate the tab now too:
select rating
Wanna post a correction for this tab? Suggest correction