Oops, an error
Loading. Please wait.

Na Na Na solo tab

version 2
version 2
1,636 views 9 this week
no commentswrite comment
1 2 3 4 5
1 last vote to show rating
add to favorites
×
Save as Personal and add changes to this tab that will be seen only by you. Learn more ›
×
You can save this tab as Personal to edit and correct it or add notes. All changes will be seen only by you. Learn more »
launch autoscroll
font size
0
reset
how to read this tab
guitar tuner
edit
Autoscroll
slow
fast
+/-
esc
set tempo
stop
------------------------------------------------------------------------------------------------------
 Na Na Na (solo) - My Chemical Romance - (Album: Danger Days: The True Lives Of The Fabulous Killjoys)
------------------------------------------------------------------------------------------------------
Tabbed by:
E-mail:that1awesomeskaterguy@gmail.com

Tuning:Standard (EADGBe)

I put up the intro to this song so i figured might as well put the solo up too. Solo is pretty easy just I
have not learned the transition into it yet so i put where this part of the solo begins.

 (starts at 2:27 in song)
e|---------------------------------------------------------------------------7-9-11-9-7--|
B|--------------------------7-7----------------------------7-7-8--9-9--7--9-9------------|
G|---8--8-6--8--8--8-8-8-6-8----8--6--6-4--6--6--6-6-6-4-6-------------------------------|
D|---------------------------------------------------------------------------------------|
A|---------------------------------------------------------------------------------------|
E|---------------------------------------------------------------------------------------|

these notes dont have to be hammered on but it gives it that more quick sound and gets rid of plucking sound
                 v

e|-------7~11~9-h7h9-------------------------------------------------------------------|
B|-9~-11~------------------------------------------------------------------------------|
G|-----------------------4-------------------------------------------------------------|
D|-----------------------4-------------------------------------------------------------|
A|-----------------------2-------------------------------------------------------------|
E|-------------------------------------------------------------------------------------|


************************************

| /   slide up
| \   slide down
| h   hammer-on
| p   pull-off
| ~   vibrato
| +   harmonic
| x   Mute note
| b   Bend
| pb  Pre-bend
| br  Bend release
| pbr Pre-bend release
| brb Bend release bend

************************************

            
            
Suggest correction
Creating personal tab
Creating personal tab
You can edit any tab online and save it as your Personal.

You can edit, replace or remove any tab part or add personal notes – all changes will be seen only by you.

Personal tabs can be accessed anytime from any device, even offline.
Learn more »
Give kudos to tab author, rate the tab!
1 2 3 4 5
comments
print report bad tab
guest
You may want to rate the tab now too:
select rating
Wanna post a correction for this tab? Suggest correction