Oops, an error
Loading. Please wait.

Planetary Go bass

version 4
version 4

Whole song

Interactive

255 views 1 this week
no commentswrite comment
1 2 3 4 5
3 more votes to show rating
add to favorites
×
Save as Personal and add changes to this tab that will be seen only by you. Learn more ›
×
You can save this tab as Personal to edit and correct it or add notes. All changes will be seen only by you. Learn more »
launch autoscroll
font size
0
reset
guitar tuner
backing track
0:00
0:00
edit
Autoscroll
slow
fast
+/-
esc
set tempo
stop
Author
Difficulty
intermediate
-------------------------------------------------------------------------------
                  Planetary (GO!) - My Chemical Romance
-------------------------------------------------------------------------------
Tabbed by: Emma Bick
E-mail: wethebickster@gmail.com 
Bassist: Mikey Way
Tuning: E Standard

Intro (0:00- 0:10) No Bass

Verse 1 (0:11- 0:25) Clean (No FX/ Pedals)
G|---------------------------------------------------------------------------|
D|---------------------------------------------------------------------------|
A|--------22223333--------22223333-5-----------------------------------------|
E|33333333--------33333333---------------------------------------------------|

Pre- Chorus 1 (0:26- 0:39) Clean(vvvvvvvv Distort though Chorus)
G|------------------------------55555555-------------------------------------|
D|---------------------------------------------------------------------------|
A|----3--------5-------3----6------------------------------------------------|
E|0-------3--------0---------------------------------------------------------|

Chorus 1 (0:40- 0:54) Distorted (Play 2x)
G|--------------------------------------4---4---4---4---5---5----------------|
D|--5---5---5-3-5---5---5---5-3-5--------------------------------------------|
A|------------------------------------2---2---2---2---3---3------------------|
E|3---3---3-------3---3---3-------3--------------------------8--6------------|

Verse 2 (0:55- 1:23) Clean (Play 4x)
G|--------------------------------------4---4---4---4---5---5----------------|
D|--5---5---5-3-5---5---5---5-3-5--------------------------------------------|
A|------------------------------------2---2---2---2---3---3------------------|
E|3---3---3-------3---3---3-------3--------------------------8--6------------|

Pre- Chorus 2 (1:24- 1:39) Clean(vvvvvvvv Distort though Chorus)
G|-------------------------------55555555------------------------------------|
D|---------------------------------------------------------------------------|
A|----3--------5-------3----6------------------------------------------------|
E|0-------3--------0---------------------------------------------------------|

Chorus 2 (1:40- 1:52) Distorted (Play 2x)
G|--------------------------------------4---4---4---4---5---5----------------|
D|--5---5---5-3-5---5---5---5-3-5--------------------------------------------|
A|------------------------------------2---2---2---2---3---3------------------|
E|3---3---3-------3---3---3-------3--------------------------8--6------------|

Post- Chorus (1:53- 2:07) Clean
G|---------------------------------------------------------------------------|
D|---------------------------------------------------------------------------|
A|--------22223333--------22223333x------------------------------------------|
E|33333333--------33333333---------------------------------------------------|

Chorus 3 (2:08- 2:21) Distorted (Play 2x)
G|--------------------------------------4---4---4---4---5---5----------------|
D|--5---5---5-3-5---5---5---5-3-5--------------------------------------------|
A|------------------------------------2---2---2---2---3---3------------------|
E|3---3---3-------3---3---3-------3--------------------------8--6------------|

Pre- Chorus 2 (2:22- 2:36) Clean(vvvvvvvv Distort though Chorus) 
G|-------------------------------55555555------------------------------------|
D|---------------------------------------------------------------------------|
A|----3--------5-------3----6------------------------------------------------|
E|0-------3--------0---------------------------------------------------------|

Chorus 4 (2:37- 2:50) Distorted (Play 2x)
G|--------------------------------------4---4---4---4---5---5----------------|
D|--5---5---5-3-5---5---5---5-3-5--------------------------------------------|
A|------------------------------------2---2---2---2---3---3------------------|
E|3---3---3-------3---3---3-------3--------------------------8--6------------|

Bridge (2:51- 3:20) Distorted (Play 3x)
G|---------------------------------------------------------------------------|
D|---------------------------------------------------------------------------|
A|5x5x5x5x7x7x7x7x3x3x3x3x3x3x3x3x-------------------------------------------|
E|---------------------------------------------------------------------------|

(Play 1x) Still Distorted (also still Bridge)
G|---------------------------------------------------------------------------|
D|---------------------------------------------------------------------------|
A|5x5x5x5x7x7x7x7x3333333335555----------------------------------------------|
E|---------------------------------------------------------------------------|

Chorus 5 (3:21- 4:07) Distorted (Play 6x)
G|--------------------------------------4---4---4---4---5---5----------------|
D|--5---5---5-3-5---5---5---5-3-5--------------------------------------------|
A|------------------------------------2---2---2---2---3---3------------------|
E|3---3---3-------3---3---3-------3--------------------------8--6------------|


| /  slide up
| \  slide down
| h  hammer-on
| p  pull-off
| ~  vibrato
| +  harmonic
| x  Mute note
===============================================================================

            
            
Suggest correction
Creating personal tab
Creating personal tab
You can edit any tab online and save it as your Personal.

You can edit, replace or remove any tab part or add personal notes – all changes will be seen only by you.

Personal tabs can be accessed anytime from any device, even offline.
Learn more »
Give kudos to tab author, rate the tab!
1 2 3 4 5
comments
print report bad tab
guest
You may want to rate the tab now too:
select rating
Wanna post a correction for this tab? Suggest correction