Oops, an error
Loading. Please wait.

Stay bass

version 1
version 1

Whole song

Interactive

1,457 views 3 this week
1 commentread comment
1 2 3 4 5
1 last vote to show rating
add to favorites
×
Save as Personal and add changes to this tab that will be seen only by you. Learn more ›
×
You can save this tab as Personal to edit and correct it or add notes. All changes will be seen only by you. Learn more »
launch autoscroll
font size
0
reset
guitar tuner
edit
Autoscroll
slow
fast
+/-
esc
set tempo
stop
Author
-------------------------------------------------------------------------------
			     Stay - My Chemical Romance
-------------------------------------------------------------------------------

 Tabbed By :dvanwyk 
 e-mail: dustinvanwyk@yahoo.com

 Tuning:Stanard

 Intro x2 (0.23)
G|--------------------------------------|
D|--------------------------------------|
A|--------------------------------------|
E|0~----2~--3~--8~----5~----------------|
 x1
G|-----------------------------------|---------------------------------------|
D|-----------------------------------|---------------------------------------|
A|-----------------33333333----------|----------------33333333---------------|
E|0000000000000000----------22223333-|000000000000000----------55555555------|

 Verse "Say, the lights are really low enough to play"
G|---------------------------------------------|
D|---------------------------------------------|
A|---------------------------------------------|
E|0~----8~--2x-2h3-0~----8~----5~--------------|

G|---------------------------------------------------------------------------|
D|---------------------------------------------------------------------------|
A|---------------------------------------------------------------------------|
E|00000000000000008888888822222222--00000000000000008888888855555555---------|

 Chorus x2 "And would you stay right here"
G|---------------------------------------------------------------------------|
D|---------------------------------------------------------------------------|
A|---------------------------------------------------------------------------|
E|33333333333333332222222222222222000000000000-2-3-8888888888888888----------|


 Verse "Sometimes it's all the 'machines?' that you're at 'fault"
G|---------------------------------------------|
D|---------------------------------------------|
A|---------------------------------------------|
E|0~----8~--2x-2h3-0~----8~----5~--------------|

G|---------------------------------------------------------------------------|
D|---------------------------------------------------------------------------|
A|---------------------------------------------------------------------------|
E|00000000000000008888888822222222--00000000000000008888888855555555---------|

 Chorus x2
G|---------------------------------------------------------------------------|
D|---------------------------------------------------------------------------|
A|---------------------------------------------------------------------------|
E|33333333333333332222222222222222000000000000-2-3-8888888888888888----------|

 Bridge x2 "Is there no one, no one out there"
G|---------------------------------------------------------------------------|
D|---------------------------------------------------------------------------|
A|---------------------------------------------------------------------------|
E|555555555555-3-222222222222-3333-2222-0000000000000000---------------------|

G|--------------------------------------------|
D|--------------------------------10~---------|
A|----------------------------10--------------|
E|555555555555-3-888888888888-----------------|

G|---------------------------------------------------------------------------|
D|---------------------------------------------------------------------------|
A|---------------------------------------------------------------------------|
E|33333333333333332222222222222222000000000000-2-3-8888888888888888----------|

Chorus x4
G|---------------------------------------------------------------------------|
D|---------------------------------------------------------------------------|
A|---------------------------------------------------------------------------|
E|33333333333333332222222222222222000000000000-2-3-8888888888888888----------|

G|-------------------------|
D|-------------------------|
A|-------------------------|
E|3~-----------------------|


            
            
Suggest correction
Creating personal tab
Creating personal tab
You can edit any tab online and save it as your Personal.

You can edit, replace or remove any tab part or add personal notes – all changes will be seen only by you.

Personal tabs can be accessed anytime from any device, even offline.
Learn more »
Give kudos to tab author, rate the tab!
1 2 3 4 5
comments
print report bad tab
1 comment total.
0 reply
Gormer 10 Mar 15, 2008 01:50 PM

Hey. Im wondering. where can i get an MP3 of this song

guest
You may want to rate the tab now too:
select rating
Wanna post a correction for this tab? Suggest correction