Oops, an error
Loading. Please wait.

Thank You For The Venom solo tab

version 2
3,803 views 3 this week
no commentswrite comment
1 2 3 4 5
x 7
add to favorites
×
Save as Personal and add changes to this tab that will be seen only by you. Learn more ›
×
You can save this tab as Personal to edit and correct it or add notes. All changes will be seen only by you. Learn more »
launch autoscroll
font size
0
reset
how to read this tab
guitar tuner
edit
Autoscroll
slow
fast
+/-
esc
set tempo
stop
Author
Difficulty
Song: Thank you for the venom.
Artist: My Chemical Romance.
Album: Three Cheers for Sweet Revenge.

^: Bend
Tr= Tremolo Picking
/\= Slide up and down
h;p= Hammer on; Pull up.

e|-----------------------------|
B|-----------------------------|
G|-----------------------------|
D|-0h4-0h4-0h4-0h4-0h4-0h4-0h4-|
A|-----------------------------|
E|-----------------------------|

 e|-------------------------------------------|
 B|-------------------------------------------|
 G|-4---/7-/7—--6-7\6—--4/6---7---/9-/9—-7-6--|
 D|-------------------------------------------|
 A|-------------------------------------------|
 E|-------------------------------------------|
Tr|-------------------------------------------|
(Continued)
 e|--------------------------------------------|
 B|--------------------------------------------|
 G|-11---7—4--—/11--/11---12--11--/9--/9—11--12|
 D|--------------------------------------------|
 A|--------------------------------------------|
 E|--------------------------------------------|
Tr|-----------------------------------------|


e|-------------------------------------12-14-15-17-17^-17^-17-15-14-|
B|-------------------12-14-15-12-14-15------------------------------|
G|-11-12-14-11-12-14------------------------------------------------|
D|------------------------------------------------------------------|
A|------------------------------------------------------------------|
E|------------------------------------------------------------------|
(Continued)
e|12-14-14^-14^--|
B|---------------|
G|---------------|
D|---------------|
A|---------------|
E|---------------|
(Continued)
e|---14-15-14-12-14-12----------15-14-12-14-12----------|
B|---------------------15-14-12----------------15-14----|
G|------------------------------------------------------|
D|------------------------------------------------------|
A|------------------------------------------------------|
E|------------------------------------------------------|
(Continued)
e|-------------------------------------------------------------------|
B|-15p14p12-14p12p11-11p9p8-8p7p5-5p3p2-2p0--------------------------|
G|------------------------------------------5p3p2-2p0----------------|
D|----------------------------------------------------5p3p2-2p0------|
A|--------------------------------------------------------------5p3p2|
E|-------------------------------------------------------------------|

(Continued)
e|-------------|
B|-------------|
G|-------------|
D|-------------|
A|2p0------3---|
E|-----2p0-----|

I think is 99% exact, comments of corrections: rock_willnever_die@hotmail.com


            
            
Suggest correction
Creating personal tab
Creating personal tab
You can edit any tab online and save it as your Personal.

You can edit, replace or remove any tab part or add personal notes – all changes will be seen only by you.

Personal tabs can be accessed anytime from any device, even offline.
Learn more »
comments
print report bad tab
guest
You may want to rate the tab now too:
select rating
Wanna post a correction for this tab? Suggest correction