Oops, an error
Loading. Please wait.
We have an official The Ghost Of You tab made by UG professional guitarists. Check out the tab »
×
10,136 views 15 this week
1 commentread comment
1 2 3 4 5
x 4
add to favorites
×
Save as Personal and add changes to this tab that will be seen only by you. Learn more ›
×
You can save this tab as Personal to edit and correct it or add notes. All changes will be seen only by you. Learn more »
launch autoscroll
font size
0
reset
guitar tuner
edit
Autoscroll
slow
fast
+/-
esc
set tempo
stop
Author
Difficulty
Tabbed By bass_girl_260
Ghost of You
My Chemical Romance
Three Cheers for Sweet Revenge
Standard Tuning (EADG)
Bassist: Mikey Way

Played softly with no pick. Make sure fret changes are smooth
 
Intro - No Bass

Verse X2
G|--------------------------------------------------------------------|
D|--------------------------------------------------------------------|
A|--22222222222222222222-4444-5555------------------------------------|
E|---------------------------------0000000000000000-2222222-2~--------|


  1st Chorus 
G|--------------------------------------------------------------------|
D|--------------------------------------------------------------------|
A|-----------------------------------2222222222222222-0000000000000-2-|
E|-3333333333333333-0000000000000000----------------------------------|

G|--------------------------------------|
D|--------------------------------------|
A|--------------------------------------|
E|-3333333333333-2-3-2-0000000000000000-|

  Verse X2

  2nd Chorus 
G|--------------------------------------------------------------------|
D|--------------------------------------------------------------------|
A|-----------------------------------2222222222222222-0000000000000-2-|
E|-3333333333333333-0000000000000000----------------------------------|

G|-----------------------------------------------------------------------|
D|-----------------------------------------------------------------------|
A|--------------------------------------2222222222222222-0000000000000-2-|
E|-3333333333333-2-3-2-0000000000000000----------------------------------|

G|--------------------------------------|
D|--------------------------------------|
A|--------------------------------------|
E|-3333333333333-2-3-2-0000000000000000-|


  Bridge X4
G|--------------------------------------|
D|--------------------------------------|
A|--22222222----------44444444----------|
E|-----------33333333----------22222222-|


  Final Chorus 
G|--------------------------------------------------------------------|
D|--------------------------------------------------------------------|
A|-----------------------------------2222222222222222-0000000000000-2-|
E|-3333333333333333-0000000000000000----------------------------------|

G|-----------------------------------------------------------------------|
D|-----------------------------------------------------------------------|
A|--------------------------------------2222222222222222-0000000000000-2-|
E|-3333333333333-2-3-2-0000000000000000----------------------------------|

G|--------------------------------------|
D|--------------------------------------|
A|--------------------------------------|
E|-3333333333333-2-3-2-0000000000000000-|

            
            
Suggest correction
Creating personal tab
Creating personal tab
You can edit any tab online and save it as your Personal.

You can edit, replace or remove any tab part or add personal notes – all changes will be seen only by you.

Personal tabs can be accessed anytime from any device, even offline.
Learn more »
comments
print report bad tab
1 comment total.
0 reply
fenderbassdude 76 Apr 06, 2008 02:09 PM

yeah theres already a tab thats perfect all you did was say theres no intro so nice job...not really you copied someone bad job **** face

guest
You may want to rate the tab now too:
select rating
Wanna post a correction for this tab? Suggest correction