Oops, an error
Loading. Please wait.
We have an official The Ghost Of You tab made by UG professional guitarists. Check out the tab »
×
3,073 views 6 this week
1 commentread comment
1 2 3 4 5
x 3
add to favorites
×
Save as Personal and add changes to this tab that will be seen only by you. Learn more ›
×
You can save this tab as Personal to edit and correct it or add notes. All changes will be seen only by you. Learn more »
launch autoscroll
font size
0
reset
how to read this tab
guitar tuner
edit
Autoscroll
slow
fast
+/-
esc
set tempo
stop
Author
Difficulty
- My Chemical Romance -

"The Ghost Of yOu"
These are Frank's Guitar play...so enjoy...

Intro
|-----------------------------------------------------------------|
|------7----------7-------------------7------12----10~------------|
|---7-----7----7----7----7--7--7---7-----7------11----------------|
|-9--9--9----9--9--9---9--9--9---9--9--9--------------------------|
|-----------------------------------------------------------------|
|-----------------------------------------------------------------|

Verse
|---------------------------|----------------------------------------------|
|---------------------------|----------------------------------------------|
|-9-h11---------------------|11-----12-----14-------11---------------------|
|------12-h14--11-h12--11-h9|--14-12--12-11--14-12~---14-12-11-12-14-12-11-|
|---------------------------|----------------------------------------------|
|---------------------------|----------------------------------------------|

|---------------------------------|----------------------------------------|
|---------------------------------|----------------------------------------|
|-9-h11--9-h12--9-h11--9-9~-9-h11-|12/14-12-11---12/14-12-11-12-11---------|
|---------------------------------|-----------12~-----------------12-12/14-|
|------------------x2-------------|----------------------------------------|
|---------------------------------|----------------------------------------|

:::Pick Scraping:::

Chorus (Play according to song)               x2-----------------------------|REPEAT->
|--------------------------------------|--------------|-----|----------------|
|--------------------------------------|--------------|-----|----------------|
|11-12--14-16-14-12~--12-14-12-10~--9~-|11-12-11-9-11-|11-7-|11-12-11-9-x-7--|
|--------------------------------------|--------------|-----|----------------|
|9--10--12-14-12-10~--10-12-10-9-~--7~-|9--10-9--7-9--|9--5-|9--10-9--7-x-9--|
|--------------------------------------|--------------|-----|----------------|

|------------------------------|
|------------------------------|
|6--7--9--11~------------------|
|------------------------------|
|4--5--7--9-~------------------|
|------------------------------|

Verse
|----------------------------------------------------|
|----------------------------------------------------|
|11-x7--b11~---b11~----------------------------------|
|-------------------14-12-11-9~---14-12-11-----------|
|------------------------------------------12--------|
|----------------------------------------------------|

|---------------------------|----------------------------------------------|
|---------------------------|----------------------------------------------|
|-9-h11---------------------|11-----12-----14-------11---------------------|
|------12-h14--11-h12--11-h9|--14-12--12-11--14-12~---14-12-11-12-14-12-11-|
|---------------------------|----------------------------------------------|
|---------------------------|----------------------------------------------|

:::Pick Scraping:::

Chorus (Play according to song)               x2-----------------------------|REPEAT->
|--------------------------------------|--------------|-----|----------------|
|--------------------------------------|--------------|-----|----------------|
|11-12--14-16-14-12~--12-14-12-10~--9~-|11-12-11-9-11-|11-7-|11-12-11-9-x-7--|
|--------------------------------------|--------------|-----|----------------|
|9--10--12-14-12-10~--10-12-10-9-~--7~-|9--10-9--7-9--|9--5-|9--10-9--7-x-9--|
|--------------------------------------|--------------|-----|----------------|

|------------------------------|
|------------------------------|
|6--7--9--11~------------------|
|------------------------------|
|4--5--7--9-~------------------|
|------------------------------| and then play it again...


Bridge
|----------7------------------------------------------------------|
|----7----8-8------8----------------------------------------------|
|--7--7--9---9---7--7-6~------------------------------------------|
|9--------------9-------------------------------------------------|
|-----------------------------------------------------------------|
|-----------------------------------------------------------------|

Solo
|----------------------------------------|---------------------------------|
|--------7------------8------------------|------7---------8---------7------|
|--7-6-7--7~----7-6-7--7~--9-7-6~-7-6----|-7-6-7-7--7-6-7--7--7-6-7--7-9x7-|
|9------------9-----------------------8~-|9--------9---------9-------------|
|----------------------------------------|---------------------------------|
|----------------------------------------|---------------------------------|

 (Play According to song)                           PM.
|-------------------------------------------------|----------------|
|-------------------------------------------------|----------------|
|4--6-7-9--11-12-9--7---6-7-6-7~--7-9-11-12--11-9-|-10-------------|
|-------------------------------------------------|----------------|
|2--4-5-7--9--10-7--5~--4-5-4-5~--5-7-9--10--9--7-|-8--------------|
|-------------------------------------------------|----------------|


Chorus  (Play according to song)              x2-----------------------------|REPEAT->
|--------------------------------------|--------------|-----|----------------|
|--------------------------------------|--------------|-----|----------------|
|11-12--14-16-14-12~--12-14-12-10~--9~-|11-12-11-9-11-|11-7-|11-12-11-9-x-7--|
|--------------------------------------|--------------|-----|----------------|
|9--10--12-14-12-10~--10-12-10-9-~--7~-|9--10-9--7-9--|9--5-|9--10-9--7-x-9--|
|--------------------------------------|--------------|-----|----------------|

|------------------------------|
|------------------------------|
|6--7--9--11~------------------|
|------------------------------|
|4--5--7--9-~------------------|
|------------------------------| and then play it again...


There you go "The Ghost Of You" by = My Chemical Romance
E-mail me if i made a mistake...cedricdggry@yahoo.com  -aBuDiN-

            
            
Suggest correction
Creating personal tab
Creating personal tab
You can edit any tab online and save it as your Personal.

You can edit, replace or remove any tab part or add personal notes – all changes will be seen only by you.

Personal tabs can be accessed anytime from any device, even offline.
Learn more »
Give kudos to tab author, rate the tab!
1 2 3 4 5
comments
print report bad tab
1 comment total.
0 reply
Guitarmaster12 10 Nov 17, 2006 10:31 AM

i think the tab isnt that accurate

guest
You may want to rate the tab now too:
select rating
Wanna post a correction for this tab? Suggest correction