Oops, an error
Loading. Please wait.

The World Is Ugly tab

version 1
version 1

Whole song

Interactive

16,906 views 30 this week
4 commentsread comments
1 2 3 4 5
x 3
add to favorites
×
Save as Personal and add changes to this tab that will be seen only by you. Learn more ›
×
You can save this tab as Personal to edit and correct it or add notes. All changes will be seen only by you. Learn more »
launch autoscroll
font size
0
reset
how to read this tab
guitar tuner
edit
Autoscroll
slow
fast
+/-
esc
set tempo
stop
Author
Difficulty
-------------------------------------------------------------------------------
                             The World Is Ugly - My Chemical Romance
-------------------------------------------------------------------------------
Tabbed by:Nike Man
Email: Badoingdoingdoing@hotmail.com  message me to correct me

Tuning:STANDARD

i've only heard this song about 4 times and i LOVE IT im going to tab out but im not 
sure but it sounds just about it, and hey i think im the first to tab :) well enjoy

INTRO

guitars:clean with sustain
  C           Am        F          G        Am         F           G      (C)
e|0-----------0---------1----------3---------0---------1-----------3---------|
B|1-----------1---------1----------3---------1---------1-----------3---------|
G|0-----------2---------4----------0---------2---------4-----------0---------|
D|2--X8-------2--X8-----3-X8-------0--X8-----2---X8----3---X8------0--X8-----|
A|3-----------0---------3----------2---------0---------3-----------2---------|
E|----------------------1----------3-------------------1-----------3---------|

Guitars: Distortian

Chorus 1

e|-----------|-------------------------------|-------------------------------|
B|-----------|-------------------------------|-------------------------------|
G|---5-------|-------------------------------|-------------------------------|
D|---5-X16---|--7-----------3---------5------|-------------------------------|
A|---3-------|--7-X16-------3--X8-----5-X8---|-------------------------------|
E|-----------|--5-----------1---------3------|-------------------------------|
++++++++++++++++++++++++repeat 3

Distortian Guitars

Chorus 2

e|-----------|-------------------------------|-------------------------------|
B|-----------|-------------------------------|-------------------------------|
G|---5-------|-------------------------------|------5~-----------------------|
D|---5-X16---|--5-----------3---------5------|------5~-----------------------|
A|---3-------|--5-X16-------3--X8-----5-X8---|------3~-----------------------|
E|-----------|--7-----------1---------3------|-------------------------------|
+++++++++++++++++++ Repeat three times          third time end on this


Outro is a piano bit its 4 30 am right now lol ill b back when i have time and do the 
bit for you all... thanks im done theres the whole song enjoy so long and goodnight lyrics 
on bottom

| /  slide up
| \  slide down
| h  hammer-on
| p  pull-off
| ~  vibrato
| +  harmonic
| x  Mute note
===============================================================================
the world is ugly,
but you're beautiful to me
Are you thinking of... me?
Are you thinking of him?
The World is ugly
And you wanted me to go
I just wanted you know...

That the world is ugly,
but you're beautiful to me
Are you thinking of me?
Are you thinking of him?
You can say I told you, so,
if you wanted me to go,
I just wanted you to know...

That the world is ugly,
but you're beautiful to me
Are you thinking of me?
Are you thinking of him?
You can say I told you, so,
if you wanted me to go,
I just wanted you to know...

That the world is ugly,
but you're beautiful to me
Are you thinking of me?
Can we both be ugly?
can we both be ugly fucks?
We could fight it to the end
I just wanna hold your hand
And you're probably just too good
I just wanted you to know...

            
            
Suggest correction
Creating personal tab
Creating personal tab
You can edit any tab online and save it as your Personal.

You can edit, replace or remove any tab part or add personal notes – all changes will be seen only by you.

Personal tabs can be accessed anytime from any device, even offline.
Learn more »
Give kudos to tab author, rate the tab!
1 2 3 4 5
comments
print report bad tab
4 comments total. Showing first comments.
0 reply
Nike Man 31 Apr 29, 2008 01:19 PM

this is for everyone i realized that i made the f chord wrong its

e-1
B-1
G-2
D-3
A-3
E-1

enjoy :)

0 reply
Billy Bullshot 52 Jul 25, 2009 04:10 AM

It is an awesome song... What about that piano outro? lol

0 reply
guitarfreak2286 31 Nov 24, 2013 07:09 AM

you peole are stupid, this tab is anything but correct and the lyrics are so far off its not even funny, and the actual intro can be played with octaves, if you knew anything about music you'd know that

guest
You may want to rate the tab now too:
select rating
Wanna post a correction for this tab? Suggest correction