Oops, an error
Loading. Please wait.

Echoes From A Hollow Soul bass

version 1
version 1

Whole song

Interactive

138 views 1 this week
no commentswrite comment
1 2 3 4 5
3 more votes to show rating
add to favorites
×
Save as Personal and add changes to this tab that will be seen only by you. Learn more ›
×
You can save this tab as Personal to edit and correct it or add notes. All changes will be seen only by you. Learn more »
launch autoscroll
font size
0
reset
guitar tuner
edit
Autoscroll
slow
fast
+/-
esc
set tempo
stop
Author
Difficulty
================================================================================
                           M Y   D Y I N G   B R I D E

                                        -

                 E C H O E S   F R O M   A   H O L L O W   S O U L
================================================================================


                                  FOR LIES I SIRE
                          (c) Peaceville Records - 2009
                           http://www.mydyingbride.org/


                              Tune Down 1 & 1/2 Steps
                                    G# C# F# B E

                                  Tempo = 120 BPM
                                Time Signature = 4/4



                          -----------------------------
                                  Transcribed by

                                  PADDY MCMULLAN
                            pmtabs (@t) gmail [dot] com

                                   Version 1.0
                                 7th  March 2010
                             -----------------------

                             Tablature Symbols Used:



 \         -  Slide Down to/Down From
 /         -  Slide Up To/Up From
 ( / )     -  Legato Slide
 ( )       -  Ghost Note/Tied Note/Implied Note
 |__[1,2]  -  Alternative Endings



================================================================================
Rest for 8 bars
================================================================================

================================================================================
Section 1: Play twice [ Tempo gradually increases to 126 BPM ]
================================================================================


||-----------------------|------------------------|----------------------|
||-----------------------|------------------------|----------------------|
||-----------------------|------------------------|----------------------|
||--0------0--8--7--0----|--(0)--0--0--------3----|--3------2--2---------|
||-----------------------|------------------------|-------------------3--|


|----------------------|-----------------------|------------------------|
|----------------------|-----------------------|------------------------|
|----------------------|-----------------------|------------------------|
|----------------------|--0------0--8--7--0----|--(0)--0--0--------3----|
|--3------5--5------3--|-----------------------|------------------------|


|----------------------|----------------------| |
|----------------------|----------------------|*|
|----------------------|----------------------| |
|--3------2--2------0--|--0------0----0--0----|*|
|----------------------|----------------------| |



Allow the final note to ring out



================================================================================
Rest for 32 bars
================================================================================

================================================================================
Section 2: Play twice
================================================================================


||-------------------|-------------------|-------------------|
||-------------------|-------------------|-------------------|
||-------------------|-------------------|-------------------|
||--0----------------|--(0)--------------|--2----------------|
||-------------------|-------------------|-------------------|


|-------------------|-------------------|-------------------|
|-------------------|-------------------|-------------------|
|-------------------|-------------------|-------------------|
|--(2)--------------|--0----------------|--(0)--------------|
|-------------------|-------------------|-------------------|


|-------------------|-------------------|-------------------|
|-------------------|-------------------|-------------------|
|-------------------|-------------------|-------------------|
|--2----------------|--(2)--------------|--5----------------|
|-------------------|-------------------|-------------------|


|-------------------|-------------------|-------------------|
|-------------------|-------------------|-------------------|
|-------------------|-------------------|-------------------|
|--(5)--------------|--3----------------|--(3)--------------|
|-------------------|-------------------|-------------------|


|-------------------|-------------------|-------------------|
|-------------------|-------------------|-------------------|
|-------------------|-------------------|-------------------|
|--5----------------|--(5)--------------|--3----------------|
|-------------------|-------------------|-------------------|


|-------------------| |
|-------------------|*|
|-------------------| |
|--(3)--------------|*|
|-------------------| |



================================================================================
Repeat Section 1 twice
================================================================================

================================================================================
Repeat Section 2 twice
================================================================================

================================================================================
Section 3: Play 4 times
================================================================================


||-------------------|---------------------|-------------------|
||-------------------|---------------------|-------------------|
||-------------------|---------------------|-------------------|
||--0----------------|--(0)------3------0--|--5----------------|
||-------------------|---------------------|-------------------|


|--------------------|--------------------|--------------------|
|--------------------|--------------------|--------------------|
|--------------------|--------------------|--------------------|
|--(5)------3--------|--2-----------------|--------------------|
|--------------------|-----------3--------|--(3)------3--------|


|--------------------|-------------------| |
|--------------------|-------------------|*|
|--------------------|-------------------| |
|--------------------|-------------------|*|
|--1--------5--------|--(5)--------------| |



================================================================================
Repeat Section 1 twice, allowing the last notes to ring out
================================================================================

================================================================================
End
================================================================================


Tab summary:        Section 1 x 2
                    Section 2 x 2
                    Section 1 x 2
                    Section 2 x 2
                    Section 3 x 4
                    Section 1 x 2
                    
                    END

            
            
Suggest correction
Creating personal tab
Creating personal tab
You can edit any tab online and save it as your Personal.

You can edit, replace or remove any tab part or add personal notes – all changes will be seen only by you.

Personal tabs can be accessed anytime from any device, even offline.
Learn more »
Give kudos to tab author, rate the tab!
1 2 3 4 5
comments
print report bad tab
guest
You may want to rate the tab now too:
select rating
Wanna post a correction for this tab? Suggest correction