Oops, an error
Loading. Please wait.

Feel The Misery tab

397 views 9 this week
no commentswrite comment
1 2 3 4 5
3 more votes to show rating
add to favorites
×
Save as Personal and add changes to this tab that will be seen only by you. Learn more ›
×
You can save this tab as Personal to edit and correct it or add notes. All changes will be seen only by you. Learn more »
launch autoscroll
font size
0
reset
how to read this tab
guitar tuner
edit
Autoscroll
slow
fast
+/-
esc
set tempo
stop
MY DYING BRIDE
album: "Feel the misery" 2015
song: Feel the misery

***************************************************


   [Verse] 0:30
C#|-------------------------|--------------------------------|-----------------------------------|
G#|-------------------------|--------------------------------|-----------------------------------|
E |-------------------------|--------------------------------|-----------------------------------|
B |-9--------9--------------|-----12\11-11--11\9-7--------5--|-------------------12\11-11-11/12--|
F#|-7--------7--------------|-----10\9--9---9-\7-5--------3--|-------------------10\9--9--9/-10--|
C#|-7--0-0-0-7--0-0-0-0--0--|-0-0-------------------0-0-0-3--|--0-0-0-0----0-0-0-----------------|
pm     . . .    . . . .  .    . .                   . . .       . . . .    . . .

C#|-------------------------|--------------------------------|-----------------------------------|
G#|-------------------------|--------------------------------|-----------------------------------|
E |-------------------------|--------------------------------|-----------------------------------|
B |-14-------4--------------|-----12\11-11--11\12-12------5--|-----------------------------------|
F#|-12-------4--------------|-----10\9--9---9-\10-10------3--|-------10-12-9-10-9-7-5-7-10-9-7-5-|
C#|----0-0-0-2--0-0-0-0--0--|-0-0-------------------0-0-0-3--|-0-0-0-----------------------------|
pm     . . .    . . . .  .    . .                   . . .      . . . 

C#|-------------------------|--------------------------------|-----------------------------------|
G#|-------------------------|--------------------------------|-----------------------------------|
E |-------------------------|--------------------------------|-----------------------------------|
B |-ph-------ph-------------|-----12\11-11--11\9-7--------5--|-------------------12\11-11-11/12--|
F#|-7~-------7~-------------|-----10\9--9---9-\7-5--------3--|-------------------10\9--9--9/-10--|
C#|----0-0-0----0-0-0-0--0--|-0-0-------------------0-0-0-3--|--0-0-0-0----0-0-0-----------------|
pm     . . .    . . . .  .    . .                   . . .       . . . .    . . .

C#|-------------------------|--------------------------------|-----------------------------------|
G#|-------------------------|--------------------------------|-----------------------------------|
E |-------------------------|--------------------------------|-----------------------------------|
B |-14-------4--------------|-----12\11-11--11\12-12------5--|-----------------------------------|
F#|-12-------4--------------|-----10\9--9---9-\10-10------3--|-------10-12-9-10-9-7-5-7-10-9-7-5-|
C#|----0-0-0-2--0-0-0-0--0--|-0-0-------------------0-0-0-3--|-0-0-0-----------------------------|
pm     . . .    . . . .  .    . .                   . . .      . . . 

C#|-------------------------|--------------------------------|-----------------------------------|
G#|-------------------------|--------------------------------|-----------------------------------|
E |-------------------------|--------------------------------|-----------------------------------|
B |-ph-------ph-------------|-----12\11-11--11\9-7--------5--|-------------------12\11-11-11/12--|
F#|-7~-------7~-------------|-----10\9--9---9-\7-5--------3--|-------------------10\9--9--9/-10--|
C#|----0-0-0----0-0-0-0--0--|-0-0-------------------0-0-0-3--|--0-0-0-0----0-0-0-----------------|
pm     . . .    . . . .  .    . .                   . . .       . . . .    . . .

C#|-------------------------|--------------------------------|-----------------------------------|
G#|-------------------------|--------------------------------|-----------------------------------|
E |-------------------------|--------------------------------|-----------------------------------|
B |-14-------4--------------|-----12\11-11--11\12-12------5--|-----------------------------------|
F#|-12-------4--------------|-----10\9--9---9-\10-10------3--|-------10-12-9-10-9-7-5-7-10-9-7-5-|
C#|----0-0-0-2--0-0-0-0--0--|-0-0-------------------0-0-0-3--|-0-0-0-----------------------------|
pm     . . .    . . . .  .    . .                   . . .      . . . 

C#|-------------------------|--------------------------------|-----------------------------------|
G#|-------------------------|--------------------------------|-----------------------------------|
E |-------------------------|--------------------------------|-----------------------------------|
B |-ph-------ph-------------|-----12\11-11--11\9-7--------5--|-------------------12\11-11-11/12--|
F#|-7~-------7~-------------|-----10\9--9---9-\7-5--------3--|-------------------10\9--9--9/-10--|
C#|----0-0-0----0-0-0-0--0--|-0-0-------------------0-0-0-3--|--0-0-0-0----0-0-0-----------------|
pm     . . .    . . . .  .    . .                   . . .       . . . .    . . .

C#|-------------------------|--------------------------------|-----------------------------------|
G#|-------------------------|--------------------------------|-----------------------------------|
E |-------------------------|--------------------------------|-----------------------------------|
B |-14-------4--------------|-----12\11-11--11\12-12------5--|-----------------------------------|
F#|-12-------4--------------|-----10\9--9---9-\10-10------3--|-------10-12-9-10-9-7-5-7-10-9-7-5-|
C#|----0-0-0-2--0-0-0-0--0--|-0-0-------------------0-0-0-3--|-0-0-0-----------------------------|
pm     . . .    . . . .  .    . .                   . . .      . . . 

   [Chorus] 1:34  Guitar 1
C#|-------------------------|--------------------------------|-----------------------------------|
G#|-------------------------|--------------------------------|-----------------------------------|
E |---------/9--------------|--------------------------------|-----------------------------------|
B |-----------------10------|--------------/7----------------|------------------9----------------|
F#|-7-----------------------|--------------------------------|-----------------------------------|
C#|-------------------------|--------------------------------|-----------------------------------|

   Guitar 2
C#|-------------------------|--------------------------------|-----------------------------------|
G#|-------------------------|--------------------------------|-----------------------------------|
E |----------4--------------|--------------------------------|-----------------------------------|
B |-2----------------5------|----------------4----5----4-----|-----2----4----5-----7-------------|
F#|-------------------------|--------------------------------|-----------------------------------|
C#|-------------------------|--------------------------------|-----------------------------------|

   Guitar 1
C#|-------------------------|--------------------------------|-----------------------------------|
G#|-------------------------|--------------------------------|-----------------------------------|
E |---------/9--------------|--------------------------------|-----------------------------------|
B |-----------------10------|--------------/7----------------|------------------9----------------|
F#|-7-----------------------|--------------------------------|-----------------------------------|
C#|-------------------------|--------------------------------|-----------------------------------|

   Guitar 2
C#|-------------------------|--------------------------------|-----------------------------------|
G#|-------------------------|--------------------------------|-----------------------------------|
E |----------4--------------|--------------------------------|-----------------------------------|
B |-2----------------5------|----------------4----5----4-----|-----2----4----5-----7-------------|
F#|-------------------------|--------------------------------|-----------------------------------|
C#|-------------------------|--------------------------------|-----------------------------------|

   Guitar 1
C#|-------------------------|--------------------------------|-----------------------------------|
G#|-------------------------|--------------------------------|-----------------------------------|
E |---------/9--------------|--------------------------------|-----------------------------------|
B |-----------------10------|--------------/7----------------|------------------9----------------|
F#|-7-----------------------|--------------------------------|-----------------------------------|
C#|-------------------------|--------------------------------|-----------------------------------|

   Guitar 2
C#|-------------------------|--------------------------------|-----------------------------------|
G#|-------------------------|--------------------------------|-----------------------------------|
E |----------4--------------|--------------------------------|-----------------------------------|
B |-2----------------5------|----------------4----5----4-----|-----2----4----5-----7-------------|
F#|-------------------------|--------------------------------|-----------------------------------|
C#|-------------------------|--------------------------------|-----------------------------------|

   Guitar 1
C#|-------------------------|--------------------------------|-----------------------------------|
G#|-------------------------|--------------------------------|-----------------------------------|
E |---------/9--------------|--------------------------------|-----------------------------------|
B |-----------------10------|--------------/7----------------|------------------9----------------|
F#|-7-----------------------|--------------------------------|-----------------------------------|
C#|-------------------------|--------------------------------|-----------------------------------|

   Guitar 2
C#|-------------------------|--------------------------------|-----------------------------------|
G#|-------------------------|--------------------------------|-----------------------------------|
E |----------4--------------|--------------------------------|-----------------------------------|
B |-2----------------5------|----------------4----5----4-----|-----2----4----5-----7-------------|
F#|-------------------------|--------------------------------|-----------------------------------|
C#|-------------------------|--------------------------------|-----------------------------------|

   2:06  Guitar 1
C#|-------------------------|--------------------------------|-----------------------------------|
G#|-------------------------|--------------------------------|-----------------------------------|
E |---------/9--------------|--------------------------------|-----------------------------------|
B |-----------------10------|--------------/7----------------|------------------9----------------|
F#|-7-----------------------|--------------------------------|-----------------------------------|
C#|-------------------------|--------------------------------|-----------------------------------|

   Guitar 1
C#|-------------------------|--------------------------------|-----------------------------------|
G#|-------------------------|--------------------------------|-----------------------------------|
E |---------/9--------------|--------------------------------|-----------------------------------|
B |-----------------10------|--------------/7----------------|------------------9----------------|
F#|-7-----------------------|--------------------------------|-----------------------------------|
C#|-------------------------|--------------------------------|-----------------------------------|

   Guitar 1
C#|-------------------------|--------------------------------|-----------------------------------|
G#|-------------------------|--------------------------------|-----------------------------------|
E |---------/9--------------|--------------------------------|-----------------------------------|
B |-----------------10------|--------------/7----------------|------------------9----------------|
F#|-7-----------------------|--------------------------------|-----------------------------------|
C#|-------------------------|--------------------------------|-----------------------------------|

   Guitar 1
C#|-------------------------|--------------------------------|-----------------------------------|
G#|-------------------------|--------------------------------|-----------------------------------|
E |---------/9--------------|--------------------------------|-----------------------------------|
B |-----------------10------|--------------/7----------------|------------------9----------------|
F#|-7-----------------------|--------------------------------|-----------------------------------|
C#|-------------------------|--------------------------------|-----------------------------------|

   [Verse] 2:38
C#|-------------------------|--------------------------------|-----------------------------------|
G#|-------------------------|--------------------------------|-----------------------------------|
E |-------------------------|--------------------------------|-----------------------------------|
B |-9--------9--------------|-----12\11-11--11\9-7--------5--|-------------------12\11-11-11/12--|
F#|-7--------7--------------|-----10\9--9---9-\7-5--------3--|-------------------10\9--9--9/-10--|
C#|-7--0-0-0-7--0-0-0-0--0--|-0-0-------------------0-0-0-3--|--0-0-0-0----0-0-0-----------------|
pm     . . .    . . . .  .    . .                   . . .       . . . .    . . .

C#|-------------------------|--------------------------------|-----------------------------------|
G#|-------------------------|--------------------------------|-----------------------------------|
E |-------------------------|--------------------------------|-----------------------------------|
B |-14-------4--------------|-----12\11-11--11\12-12------5--|-----------------------------------|
F#|-12-------4--------------|-----10\9--9---9-\10-10------3--|-------10-12-9-10-9-7-5-7-10-9-7-5-|
C#|----0-0-0-2--0-0-0-0--0--|-0-0-------------------0-0-0-3--|-0-0-0-----------------------------|
pm     . . .    . . . .  .    . .                   . . .      . . . 
C#|-------------------------|--------------------------------|-----------------------------------|
G#|-------------------------|--------------------------------|-----------------------------------|
E |-------------------------|--------------------------------|-----------------------------------|
B |-ph-------ph-------------|-----12\11-11--11\9-7--------5--|-------------------12\11-11-11/12--|
F#|-7~-------7~-------------|-----10\9--9---9-\7-5--------3--|-------------------10\9--9--9/-10--|
C#|----0-0-0----0-0-0-0--0--|-0-0-------------------0-0-0-3--|--0-0-0-0----0-0-0-----------------|
pm     . . .    . . . .  .    . .                   . . .       . . . .    . . .

C#|-------------------------|--------------------------------|-----------------------------------|
G#|-------------------------|--------------------------------|-----------------------------------|
E |-------------------------|--------------------------------|-----------------------------------|
B |-14-------4--------------|-----12\11-11--11\12-12------5--|-----------------------------------|
F#|-12-------4--------------|-----10\9--9---9-\10-10------3--|-------10-12-9-10-9-7-5-7-10-9-7-5-|
C#|----0-0-0-2--0-0-0-0--0--|-0-0-------------------0-0-0-3--|-0-0-0-----------------------------|
pm     . . .    . . . .  .    . .                   . . .      . . . 

C#|-------------------------|--------------------------------|-----------------------------------|
G#|-------------------------|--------------------------------|-----------------------------------|
E |-------------------------|--------------------------------|-----------------------------------|
B |-ph-------ph-------------|-----12\11-11--11\9-7--------5--|-------------------12\11-11-11/12--|
F#|-7~-------7~-------------|-----10\9--9---9-\7-5--------3--|-------------------10\9--9--9/-10--|
C#|----0-0-0----0-0-0-0--0--|-0-0-------------------0-0-0-3--|--0-0-0-0----0-0-0-----------------|
pm     . . .    . . . .  .    . .                   . . .       . . . .    . . .

C#|-------------------------|--------------------------------|-----------------------------------|
G#|-------------------------|--------------------------------|-----------------------------------|
E |-------------------------|--------------------------------|-----------------------------------|
B |-14-------4--------------|-----12\11-11--11\12-12------5--|-----------------------------------|
F#|-12-------4--------------|-----10\9--9---9-\10-10------3--|-------10-12-9-10-9-7-5-7-10-9-7-5-|
C#|----0-0-0-2--0-0-0-0--0--|-0-0-------------------0-0-0-3--|-0-0-0-----------------------------|
pm     . . .    . . . .  .    . .                   . . .      . . . 

   [Bridge] 3:26  Guitar 1
C#|-------------------------|--------------------------------|-----------------------------------|
G#|-------------------------|--------------------------------|-----------------------------------|
E |-------------------------|--------------------------------|-----------------------------------|
B |-------------------------|--------------------------------|-----------------------------------|
F#|-7-----------\-----------|-------------9-----10------\----|---------14--12--------------------|
C#|-------------------------|--------------------------------|-----------------------------------|

C#|-------------------------|--------------------------------|
G#|-------------------------|--------------------------------|
E |-------------------------|--------------------------------|
B |-------------------------|--------------------------------|
F#|---14--10----------------|----12---9----------10----------|
C#|-------------------------|--------------------------------|

   Guitar 1
C#|-------------------------|--------------------------------|-----------------------------------|
G#|-------------------------|--------------------------------|-----------------------------------|
E |-------------------------|--------------------------------|-----------------------------------|
B |-------------------------|--------------------------------|-----------------------------------|
F#|-7-----------\-----------|-------------9-----10------\----|---------14--12--------------------|
C#|-------------------------|--------------------------------|-----------------------------------|

C#|-------------------------|--------------------------------|
G#|-------------------------|--------------------------------|
E |-------------------------|--------------------------------|
B |-------------------------|--------------------------------|
F#|---14--10----------------|----12---9----------10----------|
C#|-------------------------|--------------------------------|

   [Interlude] 3:58 Guitars 1&2 (maybe some power chords here..)
C#|-------------------------|--------------------------------|-----------------------------------|
G#|-------------------------|--------------------------------|-----------------------------------|
E |-------------------------|--------------------------------|-----------------------------------|
B |-------------------------|--------------------------------|-----------------------------------|
F#|-7-----------\-----------|-------------9-----10------\----|---------14--12--------------------|
C#|-------------------------|--------------------------------|-----------------------------------|

C#|-------------------------|--------------------------------|
G#|-------------------------|--------------------------------|
E |-------------------------|--------------------------------|
B |-------------------------|--------------------------------|
F#|---14--10----------------|----12---9----------10----------|
C#|-------------------------|--------------------------------|

   Guitars 1&2
C#|-------------------------|--------------------------------|-----------------------------------|
G#|-------------------------|--------------------------------|-----------------------------------|
E |-------------------------|--------------------------------|-----------------------------------|
B |-------------------------|--------------------------------|-----------------------------------|
F#|-7-----------\-----------|-------------9-----10------\----|---------14--12--------------------|
C#|-------------------------|--------------------------------|-----------------------------------|

C#|-------------------------|--------------------------------|
G#|-------------------------|--------------------------------|
E |-------------------------|--------------------------------|
B |-------------------------|--------------------------------|
F#|---14--10----------------|----12---9----------10----------|
C#|-------------------------|--------------------------------|

   4:30 Guitar 1
C#|-------------------------|--------------------------------|-----------------------------------|
G#|-------------------------|--------------------------------|-----------------------------------|
E |-------------------------|--------------------------------|-----------------------------------|
B |-------------------------|--------------------------------|-----------------------------------|
F#|-2-----------\-----------|-------------4-----5------\-----|---------9--7----------\-----------|
C#|-0-----------\-----------|-------------2-----3------\-----|---------7--5----------\-----------|

C#|-------------------------|--------------------------------|
G#|-------------------------|--------------------------------|
E |-------------------------|--------------------------------|
B |-------------------------|--------------------------------|
F#|---9---5-----------------|----7---4----------5------------|
C#|---7---3-----------------|----5---2----------3------------|

   Guitar 2
C#|-------------------------|--------------------------------|-----------------------------------|
G#|-------------------------|--------------------------------|-----------------------------------|
E |-------------------------|--------------------------------|---------11-9----------\-----------|
B |-9-----------\-----------|-------------11----12-----\-----|---------9--7----------\-----------|
F#|-7-----------\-----------|-------------9-----10-----\-----|---------9--7----------\-----------|
C#|-7-----------\-----------|-------------9-----10-----\-----|-----------------------------------|

C#|-------------------------|--------------------------------|
G#|-------------------------|--------------------------------|
E |---11--7-----------------|----9---6----------7------------|
B |---9---5-----------------|----7---4----------5------------|
F#|---9---5-----------------|----7---4----------5------------|
C#|-------------------------|--------------------------------|
 
   Guitar 1
C#|-------------------------|--------------------------------|-----------------------------------|
G#|-------------------------|--------------------------------|-----------------------------------|
E |-------------------------|--------------------------------|-----------------------------------|
B |-------------------------|--------------------------------|-----------------------------------|
F#|-2-----------\-----------|-------------4-----5------\-----|---------9--7----------\-----------|
C#|-0-----------\-----------|-------------2-----3------\-----|---------7--5----------\-----------|

C#|-------------------------|--------------------------------|
G#|-------------------------|--------------------------------|
E |-------------------------|--------------------------------|
B |-------------------------|--------------------------------|
F#|---9---5-----------------|----7---4----------5------------|
C#|---7---3-----------------|----5---2----------3------------|

   Guitar 2
C#|-------------------------|--------------------------------|-----------------------------------|
G#|-------------------------|--------------------------------|-----------------------------------|
E |-------------------------|--------------------------------|---------11-9----------\-----------|
B |-9-----------\-----------|-------------11----12-----\-----|---------9--7----------\-----------|
F#|-7-----------\-----------|-------------9-----10-----\-----|---------9--7----------\-----------|
C#|-7-----------\-----------|-------------9-----10-----\-----|-----------------------------------|

C#|-------------------------|--------------------------------|
G#|-------------------------|--------------------------------|
E |---11--7-----------------|----9---6----------7------------|
B |---9---5-----------------|----7---4----------5------------|
F#|---9---5-----------------|----7---4----------5------------|
C#|-------------------------|--------------------------------|

   Guitar 1
C#|-------------------------|--------------------------------|-----------------------------------|
G#|-------------------------|--------------------------------|-----------------------------------|
E |-------------------------|--------------------------------|-----------------------------------|
B |-------------------------|--------------------------------|-----------------------------------|
F#|-2-----------\-----------|-------------4-----5------\-----|---------9--7----------\-----------|
C#|-0-----------\-----------|-------------2-----3------\-----|---------7--5----------\-----------|

C#|-------------------------|--------------------------------|
G#|-------------------------|--------------------------------|
E |-------------------------|--------------------------------|
B |-------------------------|--------------------------------|
F#|---9---5-----------------|----7---4----------5------------|
C#|---7---3-----------------|----5---2----------3------------|

   Guitar 2
C#|-------------------------|--------------------------------|-----------------------------------|
G#|-------------------------|--------------------------------|-----------------------------------|
E |-------------------------|--------------------------------|---------11-9----------\-----------|
B |-9-----------\-----------|-------------11----12-----\-----|---------9--7----------\-----------|
F#|-7-----------\-----------|-------------9-----10-----\-----|---------9--7----------\-----------|
C#|-7-----------\-----------|-------------9-----10-----\-----|-----------------------------------|

C#|-------------------------|--------------------------------|
G#|-------------------------|--------------------------------|
E |---11--7-----------------|----9---6----------7------------|
B |---9---5-----------------|----7---4----------5------------|
F#|---9---5-----------------|----7---4----------5------------|
C#|-------------------------|--------------------------------|

   Guitar 1
C#|-------------------------|--------------------------------|-----------------------------------|
G#|-------------------------|--------------------------------|-----------------------------------|
E |-------------------------|--------------------------------|-----------------------------------|
B |-------------------------|--------------------------------|-----------------------------------|
F#|-2-----------\-----------|-------------4-----5------\-----|---------9--7----------\-----------|
C#|-0-----------\-----------|-------------2-----3------\-----|---------7--5----------\-----------|

C#|-------------------------|--------------------------------|
G#|-------------------------|--------------------------------|
E |-------------------------|--------------------------------|
B |-------------------------|--------------------------------|
F#|---9---5-----------------|----7---4----------5------------|
C#|---7---3-----------------|----5---2----------3------------|

   Guitar 2
C#|-------------------------|--------------------------------|-----------------------------------|
G#|-------------------------|--------------------------------|-----------------------------------|
E |-------------------------|--------------------------------|---------11-9----------\-----------|
B |-9-----------\-----------|-------------11----12-----\-----|---------9--7----------\-----------|
F#|-7-----------\-----------|-------------9-----10-----\-----|---------9--7----------\-----------|
C#|-7-----------\-----------|-------------9-----10-----\-----|-----------------------------------|

C#|-------------------------|--------------------------------|
G#|-------------------------|--------------------------------|
E |---11--7-----------------|----9---6----------7------------|
B |---9---5-----------------|----7---4----------5------------|
F#|---9---5-----------------|----7---4----------5------------|
C#|-------------------------|--------------------------------|

   Guitar 1
C#|-------------------------|--------------------------------|-----------------------------------|
G#|-------------------------|--------------------------------|-----------------------------------|
E |-------------------------|--------------------------------|-----------------------------------|
B |-------------------------|--------------------------------|-----------------------------------|
F#|-2-----------\-----------|-------------4-----5------\-----|---------9--7----------\-----------|
C#|-0-----------\-----------|-------------2-----3------\-----|---------7--5----------\-----------|

C#|-------------------------|--------------------------------|
G#|-------------------------|--------------------------------|
E |-------------------------|--------------------------------|
B |-------------------------|--------------------------------|
F#|---9---5-----------------|----7---4----------5------------|
C#|---7---3-----------------|----5---2----------3------------|

   Guitar 2
C#|-------------------------|--------------------------------|-----------------------------------|
G#|-------------------------|--------------------------------|-----------------------------------|
E |-------------------------|--------------------------------|---------11-9----------\-----------|
B |-9-----------\-----------|-------------11----12-----\-----|---------9--7----------\-----------|
F#|-7-----------\-----------|-------------9-----10-----\-----|---------9--7----------\-----------|
C#|-7-----------\-----------|-------------9-----10-----\-----|-----------------------------------|

C#|-------------------------|--------------------------------|
G#|-------------------------|--------------------------------|
E |---11--7-----------------|----9---6----------7------------|
B |---9---5-----------------|----7---4----------5------------|
F#|---9---5-----------------|----7---4----------5------------|
C#|-------------------------|--------------------------------|

That is how I play it. Feel free to correct.

************************************

| pm. = palm mute
| \ = slide
| ph = pinch harmonic
| ~ = vibrato

************************************

            
            
Suggest correction
Creating personal tab
Creating personal tab
You can edit any tab online and save it as your Personal.

You can edit, replace or remove any tab part or add personal notes – all changes will be seen only by you.

Personal tabs can be accessed anytime from any device, even offline.
Learn more »
Give kudos to tab author, rate the tab!
1 2 3 4 5
comments
print report bad tab
guest
You may want to rate the tab now too:
select rating
Wanna post a correction for this tab? Suggest correction