Oops, an error
Loading. Please wait.

Loves Intolerable Pain bass

version 1
version 1

Whole song

Interactive

145 views 1 this week
no commentswrite comment
1 2 3 4 5
3 more votes to show rating
add to favorites
×
Save as Personal and add changes to this tab that will be seen only by you. Learn more ›
×
You can save this tab as Personal to edit and correct it or add notes. All changes will be seen only by you. Learn more »
launch autoscroll
font size
0
reset
guitar tuner
edit
Autoscroll
slow
fast
+/-
esc
set tempo
stop
Author
Difficulty
================================================================================
                           M Y   D Y I N G   B R I D E

                                        -

                   L O V E ' S   I N T O L E R A B L E   P A I N
================================================================================


                            A LINE OF DEATHLESS KINGS
                          (c) Peaceville Records - 2006
                           http://www.mydyingbride.org/


                      Tune Down 1 & 1/2 Steps [5-string Bass]
                                    G #C# F# B E

                                  Tempo = 123 BPM
                               Time Signature = 4/4



                          -----------------------------
                                  Transcribed by

                                  PADDY MCMULLAN
                            stinkypoohpants@yahoo.co.uk

                                   Version 1.0
                                11th November 2009
                             -----------------------

                             Tablature Symbols Used:


 p         -  Pull-Off
 h         -  Hammer-On
 \         -  Slide Down to/Down From
 /         -  Slide Up To/Up From
 ( / )     -  Legato Slide
 ( )       -  Ghost Note/Tied Note/Implied Note
 REST      -  Rest and sustain rest for duration of blank space
 |_3_|     -  Triplet Notes
 |__[1,2]  -  Alternative Endings



================================================================================
Section 1: Play 8 times
================================================================================


||--------------------------|--------------------------| |
||--------------------------|--------------------------| |
||--------------------------|-----1--------1-----1-----|*|
||--3--3--3--2--2--2--0--0--|--0-----0--0-----0-----0--|*|
||--------------------------|--------------------------| |



================================================================================
Section 2: Play 4 times
================================================================================


||---------------------|------------------------|-----------------------|
||---------------------|------------------------|-----------------------|
||---------------------|------------------------|-----------------------|
||--3------5------6----|-  \--1--1----1----0----|--1   /   8   \   5----|
||---------------------|------------------------|-----------------------|


|------------------------| |
|------------------------| |
|------------------------|*|
|-(5)-5--5----5----5--5--|*|
|------------------------| |



================================================================================
Play Section 1 eight times
================================================================================

================================================================================
Play Section 2 four times
================================================================================

================================================================================
Section 3: Play 4 times
================================================================================


||---------------------|---------------------|------------------------|
||---------------------|---------------------|------------------------|
||--3------------------|---------------------|------------------------|
||-----------0----0----|--(0)----------3--2--|--2----2----6--5--5--6--|
||---------------------|---------------------|------------------------|


|--------------------|--------------------| |
|--------------------|--------------------| |
|---------------3----|-(3)---5------------|*|
|--------------------|--------------------|*|
|--4-----------------|--------------------| |



The tempo gradually increases to 128 BPM during the last repeat



================================================================================
Rest for 10 bars
================================================================================

================================================================================
Section 4: Play 4 times [ Tempo = 134 BPM ]
================================================================================


    |__3__|  |__3__|  |____3____|
||-----------------------------------|
||-----------------------------------|
||--7--7--7--7--7--7--7----7----7----|
||-----------------------------------|
||-----------------------------------|


   |__3__|  |__3__|  |____3____|
|-----------------------------------|
|-----------------------------------|
|-----------------------------------|
|--8--8--8--8--8--8--8----7----8----|
|-----------------------------------|


   |__3___|  |___3__|  |_____3______|
|----------------------------------------|
|----------------------------------------|
|--------10------------10----------10----|
|--10--------10--10----------10----------|
|----------------------------------------|


   |___3__|  |__3___|  |______3_____|
|----------------------------------------| |
|----------------------------------------| |
|------10--------------10----------12----|*|
|--10--------10----10--------10----------|*|
|----------------------------------------| |



================================================================================
Section 5: Play 4 times
================================================================================


           |__3__| |___3____|              |__3__| |____3____|
||-------------------------------|--------------------------------|
||-------------------------------|--------------------------------|
||-------------------------------|--------------------------------|
||--5------5--5----5--------5----|--------------------------------|
||-------------------------------|--6------6--6----6----6----6----|


                                |_______________________________[1,3]
          |__3__| |___3____|              |__3__| |____3____|
|-------------------------------|--------------------------------| |
|-------------------------------|--------------------------------| |
|-------------------------------|--------------------------------|*|
|-------------------------------|--------------------------------|*|
|--5------5--5----5--------5----|--3------3--3----3----3----3----| |


|______________________________[2,4]
   |_3__| |__3__|  |____3____|
|---------------------------------||
|---------------------------------||
|---------------------------------||
|---------------------------------||
|--8----8--8--8----8----8----8----||



================================================================================
Play Section 4 four times
================================================================================

================================================================================
Rest for 20 bars
================================================================================

================================================================================
Play Section 1 eight times [ Tempo = 123 BPM ]
================================================================================

================================================================================
Play Section 2 four times with the following variations:
================================================================================


||-----------------------|-------------------|-------------------||
||-----------------------|-------------------|-------------------||
||-----------------------|-------------------|-------------------||
||--1----0--8----0--5----|--(5)--------------|--(5)--------------||
||-----------------------|-------------------|-------------------||



================================================================================
End
================================================================================


Tab summary:        Section 1 x 8
                    Section 2 x 4
                    Section 1 x 8
                    Section 2 x 4
                    Section 3 x 4
                    Section 4 x 4
                    Section 1 x 8
                    Section 2 x 4

                    END

            
            
Suggest correction
Creating personal tab
Creating personal tab
You can edit any tab online and save it as your Personal.

You can edit, replace or remove any tab part or add personal notes – all changes will be seen only by you.

Personal tabs can be accessed anytime from any device, even offline.
Learn more »
Give kudos to tab author, rate the tab!
1 2 3 4 5
comments
print report bad tab
guest
You may want to rate the tab now too:
select rating
Wanna post a correction for this tab? Suggest correction