Oops, an error
Loading. Please wait.

The Lies I Sire bass

version 1
version 1

Whole song

Interactive

363 views 6 this week
no commentswrite comment
1 2 3 4 5
3 more votes to show rating
add to favorites
×
Save as Personal and add changes to this tab that will be seen only by you. Learn more ›
×
You can save this tab as Personal to edit and correct it or add notes. All changes will be seen only by you. Learn more »
launch autoscroll
font size
0
reset
guitar tuner
edit
Autoscroll
slow
fast
+/-
esc
set tempo
stop
Author
Difficulty
================================================================================
                           M Y   D Y I N G   B R I D E

                                        -

                          T H E   L I E S   I   S I R E
================================================================================


                                  FOR LIES I SIRE
                          (c) Peaceville Records - 2009
                           http://www.mydyingbride.org/


                      Tune Down 1 & 1/2 Steps [5-string Bass]
                                    G #C# F# B E

                                   Tempo = 78 BPM
                                Time Signature = 4/4



                          -----------------------------
                                  Transcribed by

                                  PADDY MCMULLAN
                            stinkypoohpants@yahoo.co.uk

                                   Version 1.0
                                4th November 2009
                             -----------------------

                             Tablature Symbols Used:


 p         -  Pull-Off
 h         -  Hammer-On
 \         -  Slide Down to/Down From
 /         -  Slide Up To/Up From
 ( / )     -  Legato Slide
 ( )       -  Ghost Note/Tied Note/Implied Note
 |_3_|     -  Triplet Notes
 |__[1,2]  -  Alternative Endings



================================================================================
Section 1: Rest for 15 Bars
================================================================================

================================================================================
Section 2: Play twice [ Tempo = 82 BPM ]
================================================================================


||-----------------------||-------------------|-----------------------|
||-----------------------||-------------------|-----------------------|
||-----------------------||-------------------|-----------------------|
||-----------7-----8-----||-------------------|-----------------------|
||--------------8-----6--||--5----------------|--5-----------5--6--6--|


|-------------------|-------------------------| |
|-------------------|-------------------------| |
|-------------------|-------------------------|*|
|-------------------|-------------7-----8-----|*|
|--5----------------|--5------ /-----8-----6--| |



Ignore the first bar on the second repeat



================================================================================
Section 3: Play once
================================================================================


||--------------------|------------------------|
||--------------------|------------------------|
||--10----------------|--10-9---------------5--|
||--------------------|------------------------|
||--------------------|------------------------|

                   |_3_|
|------------------------|-------------------------|
|------------------------|-------------------------|
|--7---------------5h7p5-|-------------------------|
|------------------------|--0------ /--7-----8-----|
|------------------------|----------------8-----6--|


|----------------------|------------------------|
|----------------------|------------------------|
|-(7/10)---------------|--10-9---------------9--|
|----------------------|------------------------|
|----------------------|------------------------|

                      |_3__|
|----------------------------|-------------------------||
|----------------------------|-------------------------||
|-(9/10)--------------9h10p9-|-------------------------||
|----------------------------|--0------ /--7-----8-----||
|----------------------------|----------------8-----6--||



================================================================================
Section 4: Play 8 times
================================================================================


                     |__________________[1-7]
||-------------------|--------------------| |
||-------------------|--------------------| |
||-------------------|--------------------|*|
||-------------------|--------------------|*|
||--5----------------|--5------------8----| |


|_____________________[8]
|-----------------------|
|-----------------------|
|-----------------------|
|-----------7-----8-----|
|--5-----------8-----6--|



================================================================================
Play Section 2 twice [ Tempo = 82 BPM ]
================================================================================

================================================================================
Play Section 3 once
================================================================================

================================================================================
Section 5: Play twice
================================================================================


||-----------------------|-------------------|-----------------------|
||-----------6-----------|--5----------------|-----------6-----------|
||--4-------------7--- \ | -3----------------|--4-------------7--- \ |
||-----------------------|-------------------|-----------------------|
||-----------------------|-------------------|-----------------------|


|------------------------| |
|--5---------------------| |
| -3----4--3--4--3--1----|*|
|------------------------|*|
|------------------------| |



================================================================================
Section 6: Play 4 times
================================================================================


||-------------------|-------------------|-------------------|
||-------------------|-------------------|-------------------|
||--4----------------|--3----------------|--4----------------|
||-------------------|-------------------|-------------------|
||-------------------|-------------------|-------------------|

|_____________________[1,2,3]
|-------------------------| |
|-------------------------| |
|--0  /  4--3--4--3--1----|*|
|-------------------------|*|
|-------------------------| |

|_____________________[4]
|-----------------------|
|-----------------------|
|--0--------------------|
|-----------7-----8-----|
|--------------8-----6--|



================================================================================
Play Section 2 twice
================================================================================

================================================================================
Play Section 3 once
================================================================================

================================================================================
End
================================================================================


Tab summary:        Section 2 x 2
                    Section 3 x 1
                    Section 4 x 8
                    Section 2 x 2
                    Section 3 x 1
                    Section 5 x 2
                    Section 6 x 4
                    Section 2 x 2
                    Section 3 x 1
                    
                    END

            
            
Suggest correction
Creating personal tab
Creating personal tab
You can edit any tab online and save it as your Personal.

You can edit, replace or remove any tab part or add personal notes – all changes will be seen only by you.

Personal tabs can be accessed anytime from any device, even offline.
Learn more »
Give kudos to tab author, rate the tab!
1 2 3 4 5
comments
print report bad tab
guest
You may want to rate the tab now too:
select rating
Wanna post a correction for this tab? Suggest correction