Oops, an error
Loading. Please wait.

The Whore The Cook And The Mother bass

version 1
version 1

Whole song

Interactive

183 views 1 this week
no commentswrite comment
1 2 3 4 5
3 more votes to show rating
add to favorites
×
Save as Personal and add changes to this tab that will be seen only by you. Learn more ›
×
You can save this tab as Personal to edit and correct it or add notes. All changes will be seen only by you. Learn more »
launch autoscroll
font size
0
reset
guitar tuner
edit
Autoscroll
slow
fast
+/-
esc
set tempo
stop
================================================================================
                          M Y   D Y I N G   B R I D E

                                       -

       T H E   W H O R E,   T H E   C O O K   A N D   T H E   M O T H E R
================================================================================


                               37.788%... COMPLETE
                          (c) Peaceville Records (1998)
                           http://www.mydyingbride.org/


                           Tune Down a 1/2 Step [5-String]
                                   A# D# G# C# F#

                                  Tempo = 124 BPM
                               Time Signature = 4/4



                          -----------------------------
                                  Transcribed by

                                  PADDY MCMULLAN
                            stinkypoohpants@yahoo.co.uk

                                   Version 1.0
                                17th January 2010
                             -----------------------

                             Tablature Symbols Used:


 \         -  Slide Down to/Down From
 /         -  Slide Up To/Up From
 ( / )     -  Legato Slide
 ( )       -  Ghost Note/Tied Note/Implied Note
 |__3__|   -  Triplet Notes
 |__[1,2]  -  Alternative Endings



================================================================================
Rest for 4 bars
================================================================================

================================================================================
Section 1: Play 8 times
================================================================================


    |_3__|  |_3__|  |_3__|          |_3__|  |_3__|  |_3__|
||-------------------------------|-------------------------------|
||-------------------------------|-------------------------------|
||-------------------------------|-------------------------------|
||-------------------------------|-------------------------------|
||--3----3--3----3--3----3--3----|--3----3--3----3--3----3--3----|


   |_3__|  |_3__|  |_3__|          |_3__|  |_3__|  |_3__|
|_________________________________________________________[1,3,5,7]
|-------------------------------|-------------------------------| |
|-------------------------------|-------------------------------|*|
|-------------------------------|-------------------------------| |
|--6----6--6----6--6----6--6----|--5----5--5----5--5----5--5----|*|
|-------------------------------|-------------------------------| |


   |_3__|  |_3__|  |_3__|           |_3__|  |_3__|  |_3__|
|______________________________________________________________[2,6]
|--------------------------------|-------------------------------| |
|--------------------------------|-------------------------------|*|
|--------------------------------|-------------------------------| |
|--6----6--6----6--6----6--6  \  |--3----3--3----3--2----2--2----|*|
|--------------------------------|-------------------------------| |


   |_3__|  |_3__|  |_3__|              |_3__|  |_3__|  |_3__|
|_________________________________________________________________[4,8]
|-----------------------------------|-------------------------------| |
|-----------------------------------|-------------------------------|*|
|-----------------------------------|-------------------------------| |
|--6----6--6----6--6----6--6  /  8--|--8----8--8----8--8----8--8----|*|
|-----------------------------------|-------------------------------| |



================================================================================
Section 2: Play 8 times
================================================================================


    |_3__|  |_3__|  |_3__|          |_3__|  |_3__|  |_3__|
||-------------------------------|-------------------------------| |
||-------------------------------|-------------------------------|*|
||-------------------------------|-------------------------------| |
||-------------------------------|-------------------------------|*|
||--5----5--5----5--5----5--5----|--3----3--3----3--3----3--3----| |



================================================================================
Repeat Section 1
================================================================================

================================================================================
Repeat Section 2
================================================================================

================================================================================
Section 3: Play 4 times
================================================================================


||-------------------||-----------------------|-----------------------|
||-------------------||-----------------------|-----------------------|
||-------------------||-----------5--4--------|-----------------------|
||-------------------||-----------------6--5--|--(5)------------------|
||--3----------------||--(3)------------------|--------------8--6--4--|


|-----------------------|-------------------| |
|-----------------------|-------------------|*|
|-----------------------|-------------------| |
|-----------------------|-------------------|*|
|--(4)---------7--6--3--|--(3)--------------| |



After the first time ignore the first bar



Allow the last bar to ring out



================================================================================
Interlude: Rest for 136 Bars
================================================================================

================================================================================
Repeat Section 1
================================================================================

================================================================================
Repeat Section 2
================================================================================

================================================================================
Repeat Section 3
================================================================================

================================================================================
End
================================================================================


Tab summary:        Section 1 x 8
                    Section 2 x 8
                    Section 1 x 8
                    Section 2 x 8
                    Section 3 x 4
                    Interlude
                    Section 1 x 8
                    Section 2 x 8
                    Section 3 x 4

                    END

            
            
Suggest correction
Creating personal tab
Creating personal tab
You can edit any tab online and save it as your Personal.

You can edit, replace or remove any tab part or add personal notes – all changes will be seen only by you.

Personal tabs can be accessed anytime from any device, even offline.
Learn more »
Give kudos to tab author, rate the tab!
1 2 3 4 5
comments
print report bad tab
guest
You may want to rate the tab now too:
select rating
Wanna post a correction for this tab? Suggest correction