Oops, an error
Loading. Please wait.

Thy Raven Wings bass

version 1
version 1

Whole song

Interactive

271 views 1 this week
no commentswrite comment
1 2 3 4 5
3 more votes to show rating
add to favorites
×
Save as Personal and add changes to this tab that will be seen only by you. Learn more ›
×
You can save this tab as Personal to edit and correct it or add notes. All changes will be seen only by you. Learn more »
launch autoscroll
font size
0
reset
guitar tuner
backing track
0:00
0:00
edit
Autoscroll
slow
fast
+/-
esc
set tempo
stop
Author
Difficulty
================================================================================
                           M Y   D Y I N G   B R I D E

                                        -

                          T H Y   R A V E N   W I N G S
================================================================================


                            A LINE OF DEATHLESS KINGS
                          (c) Peaceville Records (2006)
                           http://www.mydyingbride.org/


                             Tune Down  1 & 1/2 Steps
                                   G# C# F# B E

                                  Tempo = 90 BPM
                               Time Signature = 4/4



                          -----------------------------
                                  Transcribed by

                                  PADDY MCMULLAN
                            pmtabs (@t) gmail [dot] com

                                   Version 1.0
                                 10th March 2010
                             -----------------------

                             Tablature Symbols Used:


 p         -  Pull-Off
 h         -  Hammer-On
 \         -  Slide Down to/Down From
 /         -  Slide Up To/Up From
 ( / )     -  Legato Slide
 ( )       -  Ghost Note/Tied Note/Implied Note
 REST      -  Rest and sustain rest for duration of blank space
 |_3_|     -  Triplet Notes
 |__[1,2]  -  Alternative Endings



================================================================================
Rest for 8 bars
================================================================================

================================================================================
Section 1: Play 4 times [ Tempo gradually increases to 98 BPM ]
================================================================================


||---------------------|---------------------|---------------------|
||---------------------|---------------------|---------------------|
||---------------------|---------------------|---------------------|
||--5---------------3--|--3---------------1--|--1---------------3--|
||---------------------|---------------------|---------------------|


|-------------------| |
|-------------------|*|
|-------------------| |
|--3----------------|*|
|-------------------| |



================================================================================
Section 2: Play 4 times
================================================================================


||---------------------|---------------------|---------------------|
||---------------------|---------------------|---------------------|
||---------------------|---------------------|---------------------|
||--5------------5--3--|--(3)----------3--1--|--(1)----------1--3--|
||---------------------|---------------------|---------------------|


|---------------------| |
|---------------------|*|
|---------------------| |
|--(3)------5--3------|*|
|---------------------| |



================================================================================
Repeat Section 1 [ Tempo gradually increases to 102 BPM ]
================================================================================

================================================================================
Section 3: Play twice [ Tempo = 106 BPM ]
================================================================================


||--------------------------|--------------------------|
||--------------------------|--------------------------|
||--------------------------|--------------------------|
||--5--5--5--5--5--5--5--3--|--3--3--3--3--3--3--3--1--|
||--------------------------|--------------------------|


|--------------------------|--------------------------| |
|--------------------------|--------------------------|*|
|--------------------------|--------------------------| |
|--1--1--1--1--1--1--1--3--|--3--3--3--3--3--3--3--3--|*|
|--------------------------|--------------------------| |



================================================================================
Section 4: Play 4 times
================================================================================


| |----------------------|------------------------|
|4|----------------------|------------------------|
|/|-------8----7------5--|--7--8---------5--7--8--|
|4|--5-------------------|--------8---------------|
| |----------------------|------------------------|


| |------------------| |
|3|------------------|*|
|/|---------5--8--7--| | x 4
|4|--7---------------|*|
| |------------------| |


| |------------| |
|3|------------|4|
|/|-------8----|/|
|4|--5---------|4|
| |------------| |



================================================================================
Section 5: Play once
================================================================================


||---------------------------|--------------------------|
||---------------------------|--------------------------|
||------------------------7--|--7--7--7--7--7--7--5--8--|
||--5--5--5--5--5--5--3/ ----|--------------------------|
||---------------------------|--------------------------|


|---------------------------|--------------------------||
|---------------------------|--------------------------||
|--8--8--8--8--8--8--5 / 7--|--7--7--8--5--5--5--5--7--||
|---------------------------|--------------------------||
|---------------------------|--------------------------||



================================================================================
Repeat Section 4
================================================================================

================================================================================
Section 6: Play 4 times
================================================================================


||-----------------------|------------------------|
||-----------------------|------------------------|
||--2--2-------2---------|------------------------|
||--------------------0--|--3----3----3--2--2--2--|
||-----------------------|------------------------|


|-----------------------|------------------------| |
|-----------------------|------------------------|*|
|--3--2-------2---------|------------------------| |
|--------------------0--|--3----3----3--5--5--5--|*|
|-----------------------|------------------------| |



After the first time replace the first note with a 3



================================================================================
Repeat Section 1 [ Tempo = 100 BPM ]
================================================================================



Allow the final note to ring out



================================================================================
End
================================================================================


Tab summary:        Section 1 x 4
                    Section 2 x 1
                    Section 1 x 4
                    Section 3 x 2
                    Section 4 x 4
                    Section 5 x 1
                    Section 4 x 4
                    Section 6 x 1
                    Section 1 x 6

                    END

            
            
Suggest correction
Creating personal tab
Creating personal tab
You can edit any tab online and save it as your Personal.

You can edit, replace or remove any tab part or add personal notes – all changes will be seen only by you.

Personal tabs can be accessed anytime from any device, even offline.
Learn more »
Give kudos to tab author, rate the tab!
1 2 3 4 5
comments
print report bad tab
guest
You may want to rate the tab now too:
select rating
Wanna post a correction for this tab? Suggest correction