Oops, an error
Loading. Please wait.

Toxic tab

version 1
version 1

Whole song

Interactive

193 views 1 this week
no commentswrite comment
1 2 3 4 5
3 more votes to show rating
add to favorites
×
Save as Personal and add changes to this tab that will be seen only by you. Learn more ›
×
You can save this tab as Personal to edit and correct it or add notes. All changes will be seen only by you. Learn more »
launch autoscroll
font size
0
reset
how to read this tab
guitar tuner
edit
Autoscroll
slow
fast
+/-
esc
set tempo
stop
Title: Toxic
Artist: My Enemies & I
Album: Sick World


ORDER OF TAB:
Guitar 1
Guitar 2 + solo (Need kinky effect pedal, or you can vibrato the entire song)


GUITAR 1 


[Intro/Verse 2/Outro]

C |----------------------------|----------------------------|
G |----------------------------|----------------------------|
D#|----------------------------|----------------------------|
A#|--1--0--1--0----------------|----------------------------|
F |--1--0--1--0-----1----------|----------------------------|
A#|--1--0--1--0--1-----1--0----|-----0-----0M-0--0--0--0----|


C |----------------------------|----------------------------|
G |----------------------------|----------------------------|
D#|----------------------------|----------------------------|
A#|--1--0--1--0----------------|----------------------------|
F |--1--0--1--0-----1----------|-----------------1----------|
A#|--1--0--1--0--1-----1--0----|-----0-----0M-1-----1--0----|


[Verse 1/Verse 4]

C  |----------------------------|----------------------------|
G  |----------------------------|----------------------------|
D# |----------------------------|----------------------------|
A# |----------------------------|----------------------------|
F  |-----------------1----------|-----------------1----------|
A# |--1--0--1--0--1-----1--0----|--1--0--1--0--1-----1--0----|


C |----------------------------|----------------------------|
G |----------------------------|----------------------------|
D#|----------------------------|----------------------------|
A#|----------------------------|----------------------------|
F |-----------------1----------|----------------------------|
A#|--1--0--1--0--1-----1--0----|--1--0--1--0--0--0--0--0----|


[Chorus 1,2,3]

***the times with the "*" symbol have an alternate ending listed below***


C  |----------------------------|----------------------------|
G  |----------------------------|----------------------------|
D# |----------------------------|----------------------------|
A# |--0-----0-----0--0-----0----|--5-----5-----5--5-----5----|
F  |--0-----0-----0--0-----0----|--5-----5-----5--5-----5----|
A# |--0-----0-----0--0-----0----|--5-----5-----5--5-----5----|


C |----------------------------|----------------------------|
G |----------------------------|----------------------------|
D#|----------------------------|----------------------------|
A#|--8-----8-----x--x-----x----|--3--3--x--3--3--3--x--3----|
F |--8-----8-----x--x-----x----|--3--3--x--3--3--3--x--3----|
A#|--8-----8-----x--x-----x----|--3--3--x--3--3--3--x--3----|


C |----------------------------|----------------------------|
G |----------------------------|----------------------------|
D#|-----------------7----------|----------------------------|
A#|--0-----0-----x--x-----0----|--5--5--5--5--x--5-----5----|
F |--0-----0-----x--5-----0----|--5--5--5--5--x--5-----5----|
A#|--0-----0-----x--------0----|--5--5--5--5--x--5-----5----|


C |----------------------------|----------------------------|
G |----------------------------|----------------------------|
D#|----------------------------|----------------------------|
A#|--8-----8-----x--x-----x----|--3--3--x--3--3--3--x--3----|
F |--8-----8-----x--x-----x----|--3--3--x--3--3--3--x--3----|
A#|--8-----8-----x--x-----x----|--3--3--x--3--3--3--x--3----|

***Ending for Chorus 2 & Chorus 3***

C |----------------------------|----------------------------|
G |----------------------------|----------------------------|
D#|----------------------------|----------------------------|
A#|--3--3--x--3--3--3--x--3----|--3--3--x--3--5--5--x--5----|
F |--3--3--x--3--3--3--x--3----|--3--3--x--3--5--5--x--5----|
A#|--3--3--x--3--3--3--x--3----|--3--3--x--3--5--5--x--5----|


[Breakdown 1]

C |----------------------------|-------|
G |----------------------------|-------|
D#|----------------------------|-------|
A#|--------0M------------------|-------|
F |--------0M------------------|-------|
A#|--------0M----------0--0----|-------|


C |----------------------------|----------------------------|
G |----------------------------|----------------------------|
D#|----------------------------|----------------------------|
A#|----------------------------|----------------------------|
F |----------------------------|----------------------------|
A#|--1--1--1-----10b---10b-----|--1--1--1-----13b---13b-----|


C |----------------------------|----------------------------|
G |----------------------------|----------------------------|
D#|----------------------------|----------------------------|
A#|----------------------------|----------------------------|
F |----------------------------|----------------------------|
A#|--1--1--1-----11-11-11------|--1--1--1-----13b---13b-----|


C |--------------------5-------|----------------------------|
G |--------------------5-------|----------------------------|
D#|--------------------5-------|----------------------------|
A#|----------------------------|----------------------------|
F |----------------------------|----------------------------|
A#|--1--1--1-----5-------------|--2--2--2-----0--0--0-------|


C |----------------------------|----------------------------|
G |----------------------------|----------------------------|
D#|----------------------------|----------------------------|
A#|----------------------------|----------------------------|
F |----------------------------|----------------------------|
A#|--1--1--1-------------------|--2--2--2-----0--0--0-------|


[Post Chorus 2/Breakdown 2/Verse 5/Verse 6/Solo (Combined)]

C |----------------------------|----------------------------|
G |----------------------------|----------------------------|
D#|--------x--x-----x-----x----|--x-----x--x-----x--x--x----|
A#|--0M-0M-x--x-----x-----x----|--x-----x--x-----x--x--x----|
F |--0M-0M-x--x-----x-----x----|--x-----x--x-----x--x--x----|
A#|--0M-0M-x--x-----x-----x----|--x-----x--x-----x--x--x----|


C |----------------------------|----------------------------|
G |----------------------------|----------------------------|
D#|--------x--x-----x-----x----|--x-----x--x-----x--x--x----|
A#|--0M-0M-x--x-----x-----x----|--x-----x--x-----x--x--x----|
F |--0M-0M-x--x-----x-----x----|--x-----x--x-----x--x--x----|
A#|--0M-0M-x--x-----x-----x----|--x-----x--x-----x--x--x----|


C |----------------------------|----------------------------|
G |----------------------------|----------------------------|
D#|----------------------------|----------------------------|
A#|--0M-0M---------------------|----------------------------|
F |--0M-0M----------1----------|-----------------1----------|
A#|--0M-0M-1--0--1-----1--0----|--1--0--1--0--1-----1--0----|


C |----------------------------|-------|----------------------------|
G |----------------------------|-------|----------------------------|
D#|----------------------------|-------|----------------------------|
A#|----------------------------|-------|----------------------------|
F |-----------------1----------|-------|-----------------1----------|
A#|--0--0--1--0--1-----1--0----|-------|--1--0--1--0--1-----1--0----|


C |----------------------------|----------------------------|
G |----------------------------|----------------------------|
D#|----------------------------|----------------------------|
A#|----------------------------|----------------------------|
F |----------------------------|-----------------1----------|
A#|--1--0-----0-----0--0--0----|--1--0--1--0--1-----1--0----|


C |----------------------------------------------------|
G |----------------------------------------------------|
D#|----------------------------------------------------|
A#|----------------------------------------------------|
F |----------------------------------------------------|
A#|--1-----0-----0--0--0-----0-----0-----0--0--0-------|


C |----------------------------|----------------------------|
G |----------------------------|----------------------------|
D#|----------------------------|----------------------------|
A#|----------------------------|----------------------------|
F |-----------------1----------|----------------------------|
A##--1--0--1--0--1-----1--0----|--1--0-----0-----0--0--0----|


C |----------------------------|
G |----------------------------|
D#|----------------------------|
A#|----------------------------|
F |-----------------1----------|
A#|--1--0--1--0--1-----1--0----|


C |----------------------------------------------------|
G |----------------------------------------------------|
D#|--------------------------------------5-------------|
A#|--0M----0M----0M-0M-0M----0M----0M----5-------------|
F |--0M----0M----0M-0M-0M----0M----0M------------------|
A#|--0M----0M----0M-0M-0M----0M----0M------------------|


C |----------------------------|----------------------------|
G |----------------------------|----------------------------|
D#|----------------------------|----------------------------|
A#|----------------------------|----------------------------|
F |-----------------1----------|----------------------------|
A#|--1--0--1--0--1-----1--0----|--1--0-----0-----0--0--0----|


C |----------------------------|
G |----------------------------|
D#|----------------------------|
A#|----------------------------|
F |-----------------1----------|
A#|--1--0--1--0--1-----1--0----|


C |----------------------------------------------------|
G |----------------------------------------------------|
D#|----------------------------------------------------|
A#|----------------------------------------------------|
F |----------------------------------------------------|
A#|--1-----0-----0--0--0-----0-----0-----0--0--0-------|


C |----------------------------|----------------------------|
G |----------------------------|----------------------------|
D#|----------------------------|----------------------------|
A#|----------------------------|----------------------------|
F |-----------------1----------|----------------------------|
A#|--1--0--1--0--1-----1--0----|--1--0-----0-----0--0--0----|


C |----------------------------|
G |----------------------------|
D#|----------------------------|
A#|----------------------------|
F |-----------------1----------|
A#|--1--0--1--0--1-----1--0----|


C |----------------------------------------------------|
G |----------------------------------------------------|
D#|--------------------------------------5-------------|
A#|--0M----0M----0M-0M-0M----0M----0M----5-------------|
F |--0M----0M----0M-0M-0M----0M----0M------------------|
A#|--0M----0M----0M-0M-0M----0M----0M------------------|


C |----------------------------|----------------------------|
G |----------------------------|----------------------------|
D#|----------------------------|----------------------------|
A#|----------------------------|----------------------------|
F |----------------------------|----------------------------|
A#|--0M-0M-0M-0M-0M-0M-0M-0M---|--5M-5M-5M-5M-5M-5M-7M-7M---|


C |----------------------------|----------------------------|
G |----------------------------|----------------------------|
D#|----------------------------|----------------------------|
A#|----------------------------|----------------------------|
F |----------------------------|----------------------------|
A#|--8M-8M-8M-8M-8M-8M-8M-8M---|--3M-3M-3M-3M-3M-3M-3M-3M---|


C |----------------------------|----------------------------|----------------|
G |----------------------------|----------------------------|----------------|
D#|----------------------------|----------------------------|----------------|
A#|----------------------------|----------------------------|--8--8----------|
F |----------------------------|----------------------------|--8--8----------|
A#|--0M-0M-0M-0M-0M-0M-0M-0M---|--5M-5M-5M-5M-5M-5M-7M-7M---|--8--8----------|


C |----------------|----------------------------|----------------------------|
G |--------5-------|----------------------------|----------------------------|
D#|--------5-------|----------------------------|----------------------------|
A#|--3--3----------|----------------------------|----------------------------|
F |--3--3----------|----------------------------|----------------------------|
A#|--3--3----------|--0--0--0--0--0--0--0--0----|--5--5--5--5--5--5--7--7----|


C |----------------------------|----------------------------|
G |----------------------------|----------------------------|
D#|----------------------------|----------------------------|
A#|----------------------------|----------------------------|
F |----------------------------|--------------5--5--5--5----|
A#|--8--8--8--8--8--8--8--8----|--3--3--3--3----------------|


C |----------------------------|----------------------------|
G |----------------------------|----------------------------|
D#|----------------------------|----------------------------|
A#|----------------------------|----------------------------|
F |----------------------------|----------------------------|
A#|--0--0--0--0--0--0--0--0----|--5--5--5--5--5--5--7--7----|


C |----------------------------|----------------------------|
G |----------------------------|----------------------------|
D#|----------------------------|----------------------------|
A#|----------------------------|----------------------------|
F |----------------------------|--------------5--5--5--5----|
A#|--8--8--8--8--8--8--8--8----|--3--3--3--3----------------|



GUITAR 2 (Lead stuff + Solo)


[Intro/Verse 2/Post-Chorus 1/Post-Chorus 2/Verse 5]

C |----------|--25~-----|
G |--17~18~--|-----18~--|
D#|----------|----------|
A#|----------|----------|
F |----------|----------|
A#|----------|----------|


[Outro]

C |--13~25~--|----------|--25~-----|----------|
G |----------|--17~18~--|-----18~--|--17~18~--|
D#|----------|----------|----------|----------|
A#|----------|----------|----------|----------|
F |----------|----------|----------|----------|
A#|----------|----------|----------|----------|



[Verse 1/Verse 4]

C |----------------|----------------|----------------|----------------|
G |--5~-5~-5~-5~---|--5~-5~-5~-5~---|--5~-5~-5~-5~---|--5~-5~-5~-5~---|
D#|----------------|----------------|----------------|----------------|
A#|----------------|----------------|----------------|----------------|
F |----------------|----------------|----------------|----------------|
A#|----------------|----------------|----------------|----------------|



[Chorus 1,2,3]

***the times with the "*" symbol have an alternate ending listed below***

C |--10~---12~-----|--10~12~13~-----|
G |-----10~---10~--|-----------10~--|
D#|----------------|----------------|
A#|----------------|----------------|
F |----------------|----------------|
A#|----------------|----------------|


C |--13~---12~-----|--10~---10~12~--|--10~---12~-----|--10~12~13~-----|
G |-----10~---10~--|-----10~--------|-----10~---10~--|-----------10~--|
D#|----------------|----------------|----------------|----------------|
A#|----------------|----------------|----------------|----------------|
F |----------------|----------------|----------------|----------------|
A#|----------------|----------------|----------------|----------------|


C |--13~---12~-----|--10~---10~12~--|----------|--25~-----|----------|--25~-----|
G |-----10~---10~--|-----10~--------|--17~18~--|-----18~--|--17~18~--|----------|
D#|----------------|----------------|----------|----------|----------|----------|
A#|----------------|----------------|----------|----------|----------|----------|
F |----------------|----------------|----------|----------|----------|----------|
A#|----------------|----------------|----------|----------|----------|----------|

***Ending for Chorus 2***
C |--13~---12~-----|--10~---10~12~--|
G |-----10~---10~--|-----10~--------|
D#|----------------|----------------|
A#|----------------|----------------|
F |----------------|----------------|
A#|----------------|----------------|


C |--13~---12~-----|--10~---10~12~--|
G |-----10~---10~--|-----10~--------|
D#|----------------|----------------|
A#|----------------|----------------|
F |----------------|----------------|
A#|----------------|----------------|

***Ending for Chorus 3*** 

C |--13~---12~-----|--10~---10~12~--|
G |-----10~---10~--|-----10~--------|
D#|----------------|----------------|
A#|----------------|----------------|
F|----------------|----------------|
A#|----------------|----------------|


C |--13~---12~-----|--10~---10~12~--|--13~25~--|
G |-----10~---10~--|-----10~--------|----------|
D#|----------------|----------------|----------|
A#|----------------|----------------|----------|
F |----------------|----------------|----------|
A#|----------------|----------------|----------|




[Verse 6/Solo]

C |--10~12~12~10~--|--10~13~13~12~--|
G |----------------|----------------|
D#|----------------|----------------|
A#|----------------|----------------|
F |----------------|----------------|
A#|----------------|----------------|


C |--13~---12~12~--|--10~---10~10~--|--10~12~12~10~--|--10~13~13~10~--|-------|
G |-----10~--------|-----10~--------|----------------|----------------|-------|
D#|----------------|----------------|----------------|----------------|-------|
A#|----------------|----------------|----------------|----------------|-------|
F |----------------|----------------|----------------|----------------|-------|
A#|----------------|----------------|----------------|----------------|-------|


C |-------|--12~--|--12~---10~12L--|--12~10~--------|--12~---10~12L--|
G |-------|-------|----------------|----------------|----------------|
D#|-------|-------|----------------|----------------|----------------|
A#|-------|-------|----------------|----------------|----------------|
F |-------|-------|----------------|----------------|----------------|
A#|-------|-------|----------------|----------------|----------------|


C |--12~13~--------|-----------10L--|--10------------|----------------|
G |-----------10L--|--10-13~--------|-----13~---10L--|--10------------|
D#|----------------|----------------|----------------|-----10~--------|
A#|----------------|----------------|----------------|----------------|
F |----------------|----------------|----------------|----------------|
A#|----------------|----------------|----------------|----------------|


Legend

L - tied note
x - dead note
h - hammer on/pull off
b - bend
s - slide
~ - vibrato
g - ghost note
> - accentuated note
t - trill
M - palm mute
. - staccato
P - popping (bass)
S - slapping (bass)
+ - tapping
W - wide vibrato
< - fade in
w - whammy bar
= - tremolo picking
v - brush up
^ - brush down
V - pick stroke up
n - pick stroke down


ORDER OF SONG:
Intro:           0:00-0:13
Verse 1:         0:14-0:22
Verse 2:         0:23-0:32 
Chorus 1:        0:33-0:43
Post-Chorus 1:   0:43-0:51
Breakdown 1:     0:52-1:05
Verse 4:         1:06-1:14
Chorus 2:        1:15-1:38
Post Chorus 2:   1:39-1:48 
Breakdown 2:     1:49-2:00
Verse 5:         2:01-2:09
Verse 6:         2:10-2:20
Solo:            2:21-2:30
Chorus 3:        2:31-2:55
Outro:           2:56-3:10

            
            
Suggest correction
Creating personal tab
Creating personal tab
You can edit any tab online and save it as your Personal.

You can edit, replace or remove any tab part or add personal notes – all changes will be seen only by you.

Personal tabs can be accessed anytime from any device, even offline.
Learn more »
Give kudos to tab author, rate the tab!
1 2 3 4 5
comments
print report bad tab
guest
You may want to rate the tab now too:
select rating
Wanna post a correction for this tab? Suggest correction