Oops, an error
Loading. Please wait.

Golden chords

version 2
version 2

Whole song

19,139 views 66 this week
4 commentsread comments
1 2 3 4 5
x 20
add to favorites
×
Save as Personal and add changes to this tab that will be seen only by you. Learn more ›
×
You can save this tab as Personal to edit and correct it or add notes. All changes will be seen only by you. Learn more »
launch autoscroll
font size
0
reset
transpose
0
reset
simplify chords
display chords
guitar tuner
edit
Autoscroll
slow
fast
+/-
esc
set tempo
stop
Strumming
There is no strumming pattern for this song yet. and get +5 IQ
------------------------------------------------------------------------------
                             GOLDEN - My Morning Jacket
------------------------------------------------------------------------------


>>> Capo on 1 <<<

>>> Tuning: EBEGBe = E-minor Tuning (tune 4th & 5th string 1 step up)

>>> Chords <<<

            EBEGBe
F:          000100
Fsus4:      002200
F(2 fr.):   004400
F*:         005650
F6sus2:     005670
Fmaj7:      007890
Bb:         555655
C:          777877
Dm:         x99999

----------------------------------------------------------------------------

Intro:

e|--------------------------------------------------------------------------|
B|--0-----0------2-----2------2-----2------4-----4------4-----4----5-----5--|
G|------1---1--------1---1--------2---2--------2---2--------4---4------4---4|
E|----0------------0------------2------------2------------4----------4------|
B|----0------------0------------0------------0------------0----------0------|
E|----0------------0------------0------------0------------0----------0------|

e|--------------------------------0---------0-------------------------------|
B|--5-----5------7-----7------------7---------7-----------------------------|
G|------6---6--------6---6------6-----6---6-----6---------------------------|
E|----5------------5----------0---------0-----------------------------------|
B|----0------------0----------0---------0-----------------------------------|
E|----0------------0----------0---------0-----------------------------------|


F                           Fsus4
Watchin' a stretch of road, miles of light explode
F(2 fr.)                 F*
Driftin' off a thing i'd never done before

F                         Fsus4
Watchin' a crowd roll in, out go the lights it begins
F(2 fr.)                F*               F6sus2
A feelin' in my bones i never felt before

Fmaj7    F6sus2    Fmaj7    F6sus2

Bb            C            F                 Dm
People always told me that bars are dark and lonely
    Bb            C                     F
And talk is often cheap and filled with air

Bb                  C
Sure sometimes they thrill me
    F                  Dm
But nothin' could ever chill me
         Bb                C              F
Like the way they make the time just disappear

(repeat intro)

F                           Fsus4
Feelin' you are here again. hot on my skin again
F(2 fr.)                F*               
Feelin good a thing i'd never known before

F                          Fsus4                          
What does it mean to feel, millions of dreams come real
F(2 fr.)                 F*               F6sus2              
A feelin' in my soul i'd never felt before

Fmaj7    F6sus2    Fmaj7    F6sus2

    Bb         C           F                  Dm
And you always told me, no matter how long it holds me 
      Bb             C                F 
If it falls apart or makes us millonaires

       Bb               C
You'll be right here forever
         F               Dm
We'll go thru this thing together
       Bb              C                   F
And on heaven's golden shore we'll lay our heads

(repeat intro)

Fmaj7    F6sus2    Fmaj7    F6sus2
    
Fmaj7    F6sus2    Fmaj7    F6sus2

            
            
Suggest correction
Creating personal tab
Creating personal tab
You can edit any tab online and save it as your Personal.

You can edit, replace or remove any tab part or add personal notes – all changes will be seen only by you.

Personal tabs can be accessed anytime from any device, even offline.
Learn more »
comments
print report bad tab
4 comments total. Showing first comments.
0 reply
Dallon426 433 May 21, 2014 09:50 PM

This is actually played in Standard tuning

+2 reply
reedoo 1,148 May 22, 2014 03:35 AM, edited on October 25 2014, 08:48 pm

ehmm.. no :) Watch Okonokos for example, or this: http://www.youtube.com/watch?v=oVTjnOoNUX4

0 reply
BRock429 10 Jan 11, 2017 06:30 PM

didn't like this contribution

guest
You may want to rate the tab now too:
select rating
Wanna post a correction for this tab? Suggest correction