Oops, an error
Loading. Please wait.

Librarian chords

version 2
version 2

Whole song

30,565 views 30 this week
4 commentsread comments
1 2 3 4 5
x 26
add to favorites
×
Save as Personal and add changes to this tab that will be seen only by you. Learn more ›
×
You can save this tab as Personal to edit and correct it or add notes. All changes will be seen only by you. Learn more »
launch autoscroll
font size
0
reset
transpose
0
reset
display chords
guitar tuner
edit
Autoscroll
slow
fast
+/-
esc
set tempo
stop
Strumming
There is no strumming pattern for this song yet. and get +5 IQ
I used the chords already up as a guide. By adding a capo to the 3rd fret the 
song is much easier to play and can be easily finger picked.

My Morning Jacket
Librarian

Capo 3

Am              Em         Am              Em
walk across the courtyard, towards the library.
Am              Em         Dm
i can hear the insects buzz and the leaves 'neath my feet...

ramble up the stairwell, into the hall of books...
since we got the interweb these hardly get used.

duck into the men's room... combing thru my hair...
when god gave us mirrors he had no idea...

looking for a lesson in the periodicals...
there i spy you listening to the AM radio...

karen of the carpenters- singing in the rain...
another lovely victim of the mirror's evil way.

it's not like you're not trying, with a pencil in your hair
to defy the beauty the good lord put in there...

Am            Em        Am          Em
simple little bookworm- buried underneath...
Am               Em
is the sexiest librarian
Dm                         G                       C
take off those glasses and let down your hair for me.

Am                      Em        Am        Em
so i watch you thru the bookcase- imaging a scene:
Am           Em               Dm    
you and i at dinner, spending time, then to sleep.

and what then would i say to you- lying there in bed?
these words, with a kiss, i would plant in your head:

"what is it inside our heads that makes us do the opposite?
makes us do the opposite of what's right for us?
cause everything'd be grrreat...and everything'd be good...
if everybody gave...like everybody could."

sweetest little bookworm. hidden underneath...
is the sexiest librarian...
Dm                         G                      C
take off those glasses and let your hair down for me.
Dm                         G                     C
take off those glasses and let your hair down for me.

Am            Em      Am             Em
simple little beauty- heaven in your breath.
Am              Em         Dm
the simplest of pleasures- the world at it's best.

            
            
Suggest correction
Creating personal tab
Creating personal tab
You can edit any tab online and save it as your Personal.

You can edit, replace or remove any tab part or add personal notes – all changes will be seen only by you.

Personal tabs can be accessed anytime from any device, even offline.
Learn more »
comments
print report bad tab
4 comments total. Showing first comments.
+1 reply
ambient203 233 Oct 15, 2009 04:25 PM

yeah this is an awesome tab, good work. just thought id post what i pick for it, make it a bit simpler for some people

for Am i pick this

e:---------------0--------------
B:-------------------1---1------
G:----------2----------2--------
D:--------2---2-----------------
A:----0-------------------------
E:------------------------------

e:---------------0--------------
B:-------------------0---0------
G:----------0----------0--------
D:--------2---2-----------------
A:------------------------------
E:----0-------------------------

e:---------------1--------------
B:----------3--------3---3------
G:--------2---2--------2--------
D:----0-------------------------
A:------------------------------
E:------------------------------

etc for the C and G, just hit the root note and bring it up to the high e. not too hard to figure out, just thought id make it a bit easier for others. good luck!

+1 reply
ambient203 233 Oct 15, 2009 04:26 PM

the second and third row of tabbing are Em and Dm respectively

+1 reply
ambient203 233 Oct 15, 2009 09:53 PM

^^^^^

yeah this is an awesome tab, good work. just thought id post what i pick for it, make it a bit simpler for some people

for Am i pick this

e:---------------0--------------
B:-------------------1---1------
G:----------2----------2--------
D:--------2---2-----------------
A:----0-------------------------
E:------------------------------

e:---------------0--------------
B:-------------------0---0------
G:----------0----------0--------
D:--------2---2-----------------
A:------------------------------
E:----0-------------------------

e:---------------1--------------
B:----------3--------3---3------
G:--------2---2--------2--------
D:----0-------------------------
A:------------------------------
E:------------------------------

etc for the C and G, just hit the root note and bring it up to the high e. not too hard to figure out, just thought id make it a bit easier for others. good luck!

guest
Wanna post a correction for this tab? Suggest correction