Oops, an error
Loading. Please wait.

Run Thru tab

version 1
version 1

Whole song

11,277 views 9 this week
no commentswrite comment
1 2 3 4 5
x 4
add to favorites
×
Save as Personal and add changes to this tab that will be seen only by you. Learn more ›
×
You can save this tab as Personal to edit and correct it or add notes. All changes will be seen only by you. Learn more »
launch autoscroll
font size
0
reset
how to read this tab
guitar tuner
edit
Autoscroll
slow
fast
+/-
esc
set tempo
stop
My Morning Jacket
Run Thru

Tabbed by Guarddog

Tuning: Standard

u=bend up
d=bend down
p=pull off
h=hammer on
s=slide

Part- Intro Murmurs

Carl-Guitar-open standard

------------------|
------------------|
-8------10--------|
-8------10--------|
-6------8---------|
------------------|

Jim-Guitar-Capo 1 standard tuning

------------------10h12p10h12x6-|
-10—3h5p3h5p3x10----------------|
--------------------------------|
--------------------------------|
--------------------------------|
--------------------------------|

Chorus 1

Carl

-------11--13--|
---------------|
11s13----------|
---------------|
---------------|
---------------|

------11-13-|
11s13-------|
------------| x2
------------|
------------|
------------|

11------------------------------11-------------------------|
---14-13-13--13-13-11----11-11u----11d-13-13-11----11-11s9-|
----------------------13------------------------13---------|
-----------------------------------------------------------|
-----------------------------------------------------------|
-----------------------------------------------------------|

--------------|
--------------|
12h13p12h13p12
--------------|
--------------|
--------------|

Jims Rhythm Chords (capo 1)

 Em Bm Am C
----2-------|
----3--1--1-|
----4--2----|
-2--4--2--2-|
-2--2-----3-|
----x--x--x-|

Verse 1

Carls Guitar-tune G down to Gb
Here’s the chords Carl picks through, occasionally letting them ring, especially at the 
of the verse

-x--x--x--x-----------------------------------|
-1--6--13-8-----------------------------------|
-2--7--14-9-----------------------------------|
-3--8--15-10----------------------------------|
-3--8--15-10----------------------------------|
-x--x--x--x-----------------------------------|


Jims Finger Picking Pattern (capo 1)

----0----------2----------0----------0--------|
-0---0------3---3------1---1------1---1-------|
--0---0------4---4------2---2------0---0------|
---2---2-x2---4---4-x2---2---2-x2---2---2--x2-|
-2----------2----------0----------3------3----|
----------------------------------------------|

Chorus 2
Pretty much the same as chorus 1 but if you’re playing Carl’s part and your G string is
tuned down you’ll half to play all the notes on that string one fret up.


Bridge

Jim (capo 1) comes in first with…
-------------------------|
-------------------------|
-------------------------|
-----------5-------------|
-7-5-7-5-7---7-5-7-----5-|
-------------------5-7---|

First palm muted 4 times through and then without palm 8 times

Carl comes in after Jims first 8 and plays

-------------------------------|
--------------9----------------|
-10-8-10-8-10---10-8-10------8-|   x4
------------------------8-10---|
-------------------------------|
-------------------------------|


Next

Carl

-13u
----
----
----
----
----

Jim (capo 1)

0
0
0
2
2
x

Carl

-13u
----
----
----
----
----

Jim (capo 1)

0
0
0
2
2
x

Carl

-13u
----
----
----
----
----

Jim (capo 1)

0--0
0--0
0--0
2--2
2--2
x--x

Jim (capo 1)

0-0-0-0-|
0-0-0-0-|
0-0-0-0-|
2-2-2-2-|
2-2-2-2-|
x-x-x-x

While Carl plays

1-1-1-1-|
1-1-1-1-|
1-1-1-1-|
3-3-3-3-|
3-3-3-3-|
x-x-x-x

After the Bo’s Solo


Carl

-------------------------------|
--------------9----------------|
-10-8-10-8-10---10-8-10------8-|   x4
------------------------8-10---|
-------------------------------|
-------------------------------|

----------------------------------------|
----------------13----------------------|
-13-12-13-12-13----13-12-13-------12----|   x4
----------------------------11-13-------|
----------------------------------------|
----------------------------------------|

-----------------|
-----------------|
-13u-13u-13u-13--|u
-----------------|
-----------------|
-----------------|

Jim (capo 1)

-------------------------|
-------------------------|
-------------------------|
-----------5-------------|
-7-5-7-5-7---7-5-7-----5-|
-------------------5-7---|

Wall of Feedback

Chorus3-similar to others except for ending:

Both (tabbed for no capo)

--------------------|
--------------------|
9-7-9-7-9-7-9-7979--| x4
9-7-9-7-9-7-9-7979--|
7-5-7-5-7-5-7-5757--|
--------------------|
d u d u d u d udud

End

            
            
Suggest correction
Creating personal tab
Creating personal tab
You can edit any tab online and save it as your Personal.

You can edit, replace or remove any tab part or add personal notes – all changes will be seen only by you.

Personal tabs can be accessed anytime from any device, even offline.
Learn more »
comments
print report bad tab
guest
Wanna post a correction for this tab? Suggest correction