Oops, an error
Loading. Please wait.

Killing Time tab

by myGrain
296 views 1 this week
no commentswrite comment
1 2 3 4 5
3 more votes to show rating
add to favorites
×
Save as Personal and add changes to this tab that will be seen only by you. Learn more ›
×
You can save this tab as Personal to edit and correct it or add notes. All changes will be seen only by you. Learn more »
launch autoscroll
font size
0
reset
how to read this tab
guitar tuner
edit
Autoscroll
slow
fast
+/-
esc
set tempo
stop
This is my first tab so there might be some mistake, enjoy.
D|-15-15-15-15-15-15-15-15-19-19-19-19-14-14-14-14|
A|------------------------------------------------|
F|------------------------------------------------|
C|------------------------------------------------|
G|------------------------------------------------|
C|------------------------------------------------| X12

D|-15-15-15-15-15-15-15-15-15-19-19-19-19-14-14-14|
A|------------------------------------------------|
F|------------------------------------------------|
C|------------------------------------------------|
G|------------------------------------------------|
C|------------------------------------------------|
                                                Let sometime go bye
  Pick slide 

D|15-15-15-15-15-15-15-15-19-19-19-19-14-14-14-14|
A|-----------------------------------------------|
F|-----------------------------------------------|
C|-----------------------------------------------|
G|-----------------------------------------------|
C|-----------------------------------------------| X5

D|-15-15-15-15-15-15-15-15-19-19-19-19-14-14-14-14-15----------------19|
A|---------------------------------------------------------------------|
F|---------------------------------------------------------------------|
C|---------------------------------------------------------------------|
G|---------------------------------------------------------------------|
C|---------------------------------------------------------------------|

D|-19-19-19-14-14-14-14|
A|---------------------|
F|---------------------|
C|---------------------|
G|---------------------|
C|---------------------|

D|-15-15-15-15-15-15-15-15-19-19-19-19-14-14-14-14|
A|------------------------------------------------|
F|------------------------------------------------|
C|------------------------------------------------|
G|------------------------------------------------|
C|------------------------------------------------| X3

D|-15-15-15-15-15-15-15-15-15-19-19-19-19-14-14-14|
A|------------------------------------------------|
F|------------------------------------------------|
C|------------------------------------------------|
G|------------------------------------------------|
C|------------------------------------------------|

Like i said there might be mistakes here.
D|-------------------------------------------------------------------|
A|-------------------------------------------------------------------|
F|-------------------------------------------------------------------|
C|-------------------------------------------------------------------|
G|-------------------------------------------------------------------|
C|-0--0--0-0-0-0--0--0--0--0-0--0--0M-0--0--0-0--0--0--0--0--0-0-0-0-|
   .  .  . . . .  .  .  .  . .  .  .  .  .  . .  .  .  .  .  . . . .
D|---------------------------------------------------------------------|
A|---------------------------------------------------------------------|
F|---------------------------------------------------------------------|
C|---------------------------------------------------------------------|
G|---------------------------------------------------------------------|
C|-0--0--0--5-5-5-5-5-5-8-8-8-8-8-8--0--0--0-0-0-0--0--0--0--0-0--0--0M|
   .  .  .  . . . . . . . . . . . .  .  .  . . . .  .  .  .  . .  .  .
D|-----------------------------------------------------------------|
A|-----------------------------------------------------------------|
F|-----------------------------------------------------------------|
C|-----------------------------------------------------------------|
G|-----------------------------------------------------------------|
C|-0--0--0-0--0--0--0--0--0-0-0-0--0--0--0--5-5-5-5-5-5-8-8-8-8-8-8|
   .  .  . .  .  .  .  .  . . . .  .  .  .  . . . . . . . .
D|------------|-------------------------------------------------|
A|------------|-------------------------------------------------|
F|------------|-------------------------------------------------|
C|------------|-7--7--7--7--7--7--7--7--7--7--7--7--7--7--7--7--| Chorus   
G|------------|-5--5--5--5--5--5--5--5--5--5--5--5--5--5--5--5--|
C|-10-10-10-10|-------------------------------------------------|
                                                               
D|----------------------------------------------------------------------|
A|----------------------------------------------------------------------|
F|----------------------------------------------------------------------|
C|----------------------------------------------------------------------|
G|5--5--5--5--5--5--5--5--5--5--5--5--5--5--5--5--8--8--8--8--8--8--8--8|
C|5--5--5--5--5--5--5--5--5--5--5--5--5--5--5--5--8--8--8--8--8--8--8--8|

D|------------------------------------------------------------------------|
A|------------------------------------------------------------------------|
F|------------------------------------------------------------------------|
C|--------------------------5--5--5--5--5--5--5--5--5--5--5--5--5--5--5--5|
G|--8--8--8--8--8--8--8--8--3--3--3--3--3--3--3--3--3--3--3--3--3--3--3--3|
C|--8--8--8--8--8--8--8--8------------------------------------------------|

D|------------------------------------------------------------|
A|------------------------------------------------------------|
F|------------------------------------------------------------|
C|--7--7--7--7--7--7--7--7--7--7--7--7--7--7--7--7------------|
G|--5--5--5--5--5--5--5--5--5--5--5--5--5--5--5--5--5--5--5--5|
C|--------------------------------------------------5--5--5--5|

D|------------------------------------------------------------|
A|------------------------------------------------------------|
F|------------------------------------------------------------|
C|------------------------------------------------------------|
G|--5--5--5--5--5--5--5--5--5--5--5--5--8--8--8--8--8--8--8--8|
C|--5--5--5--5--5--5--5--5--5--5--5--5--8--8--8--8--8--8--8--8|

D|----------------------------------------------------|
A|----------------------------------------------------|
F|----------------------------------------------------|
C|--------------------------5--5--5--5--5--5--5--5----| Chorus end
G|--8--8--8--8--8--8--8--8--3--3--3--3--3--3--3--3----|
C|--8--8--8--8--8--8--8--8----------------------------|

D|------------------------------------------------------------------------|
A|------------------------------------------------------------------------|
F|------------------------------------------------------------------------|
C|-2---0---2---0-----------2---0---2---0-----------2---0---2---0----------|
G|-2---0---2---0-----------2---0---2---0-----------2---0---2---0----------|
C|-2---0---2---0---3-2-1-0-2---0---2---0---3-2-1-0-2---0---2---0---3-2-1-0|
                   . . . .                 . . . .                 . . . .
D|------------------------------------------------------------------------|
A|------------------------------------------------------------------------|
F|------------------------------------------------------------------------|
C|-------------------------2---0---2---0-----------2---0---2---0----------|
G|-------------------------2---0---2---0-----------2---0---2---0----------|
C|-5-5-5-5-5-5-8-8-8-8-8-8-2---0---2---0---3-2-1-0-2---0---2---0---3-2-1-0|
   . . . . . . . . . . . .                 . . . .                 . . . .
D|----------------------------------------------------------------|
A|----------------------------------------------------------------|
F|----------------------------------------------------------------|
C|-2---0---2---0-----------------------------------2---0---2---0--|
G|-2---0---2---0-----------------------------------2---0---2---0--|
C|-2---0---2---0---3-2-1-0-5-5-5-5-5-5-8-8-8-8-8-8-2---0---2---0--|
                   . . . . . . . . . . . . . . . .
D|--------------------------------------------------------------------|
A|--------------------------------------------------------------------|
F|--------------------------------------------------------------------|
C|---------2---0---2---0-----------2---0---2---0----------------------|
G|---------2---0---2---0-----------2---0---2---0----------------------|
C|-3-2-1-0-2---0---2---0---3-2-1-0-2---0---2---0---3-2-1-0-5-5-5-5-5-5|
   . . . .                 . . . .                 . . . . . . . . . .
D|------------------------------------------------------------|
A|------------------------------------------------------------|
F|------------------------------------------------------------|
C|-------------2---0---2---0-----------2---0---2---0----------|
G|-------------2---0---2---0-----------2---0---2---0----------|
C|-8-8-8-8-8-8-2---0---2---0---3-2-1-0-2---0---2---0---3-2-1-0|
   . . . . . .                 . . . .                 . . . .
D|------------------------------------------------|
A|------------------------------------------------|
F|------------------------------------------------|
C|-2---0---2---0----------------------------------|
G|-2---0---2---0----------------------------------|
C|-2---0---2---0---3-2-1-0-5-5-5-5-5-5-8-8-8-8-8-8|
                   . . . . . . . . . . . . . . . .
D|-----------------------------------------------------------------------|
A|-----------------------------------------------------------------------|
F|-----------------------------------------------------------------------|
C|-0-h2--2--2--2--2--2--2--5--5--5--5--0--0--0--0--0-h3--3--3--3--3--3--3|
G|-0-h2--2--2--2--2--2--2--5--5--5--5--0--0--0--0--0-h3--3--3--3--3--3--3|
C|-0-h2--2--2--2--2--2--2--5--5--5--5--0--0--0--0--0-h3--3--3--3--3--3--3|
         .  .  .  .  .  .  .  .  .  .  .  .  .  .        .  .  .  .  .  .
D|------------------------------------------------------------------------|
A|------------------------------------------------------------------------|
F|------------------------------------------------------------------------|
C|--5--5--5--5--0--0--0--0--0-h2--2--2--2--2--2--2--5--5--5--5--0--0--0--0|
G|--5--5--5--5--0--0--0--0--0-h2--2--2--2--2--2--2--5--5--5--5--0--0--0--0|
C|--5--5--5--5--0--0--0--0--0-h2--2--2--2--2--2--2--5--5--5--5--0--0--0--0|
    .  .  .  .  .  .  .  .        .  .  .  .  .  .  .  .  .  .  .  .  .  .
D|-----------------------------------------------------------------------|
A|-----------------------------------------------------------------------|
F|-----------------------------------------------------------------------|
C|--0-h3--3--3--3--3--3--3--5--5--5--5--0--0----0-h2--2--2--2--2--2--2--5|
G|--0-h3--3--3--3--3--3--3--5--5--5--5--0--0-3b-0-h2--2--2--2--2--2--2--5|
C|--0-h3--3--3--3--3--3--3--5--5--5--5--0--0----0-h2--2--2--2--2--2--2--5|
          .  .  .  .  .  .  .  .  .  .  .  . NH       .  .  .  .  .  .  .
D|---------------------------------------------------------------------|
A|---------------------------------------------------------------------|
F|---------------------------------------------------------------------|
C|--5--5--5--0--0--0--0--0-h3--3--3--3--3--3--3--5--5--5--5--0--0--0--0|
G|--5--5--5--0--0--0--0--0-h3--3--3--3--3--3--3--5--5--5--5--0--0--0--0|
C|--5--5--5--0--0--0--0--0-h3--3--3--3--3--3--3--5--5--5--5--0--0--0--0|
    .  .  .  .  .  .  .        .  .  .  .  .  .  .  .  .  .  .  .  .  .
D|------------------------------------------------------------------------|
A|------------------------------------------------------------------------|
F|------------------------------------------------------------------------|
C|--0-h2--2--2--2--2--2--2--5--5--5--5--0--0--0--0--0-h3--3--3--3--3--3--3|
G|--0-h2--2--2--2--2--2--2--5--5--5--5--0--0--0--0--0-h3--3--3--3--3--3--3|
C|--0-h2--2--2--2--2--2--2--5--5--5--5--0--0--0--0--0-h3--3--3--3--3--3--3|
          .  .  .  .  .  .  .  .  .  .  .  .  .  .        .  .  .  .  .  .
D|---------------------------------------------------------------|
A|---------------------------------------------------------------|
F|---------------------------------------------------------------|
C|--5--5--5--5--0--0--0--0---------------------------------------|
G|--5--5--5--5--0--0--0--0---------------------------------------|
C|--5--5--5--5--0--0--0--0-\0--2--2--2--2--2--2--2--2--5--5--5--5|
    .  .  .  .  .  .  .  .
D|------------------------------------------------------------|
A|------------------------------------------------------------|
F|------------------------------------------------------------|
C|------------------------------------------------------------|
G|------------------------------------------------------------|
C|--0--0--0--0--3--3--3--3--3--3--3--3--5--5--5--5--0--0--0--0|

D|------------------------------------------------------------------------|
A|------------------------------------------------------------------------|
F|------------------------------------------------------------------------|
C|------------------------------------------------------------------------|
G|------------------------------------------------------------------------|
C|--2--2--2--2--2--2--2--2--5--5--5--5--0--0--0--0--3--3--3--3--3--3--3--3|

D|------------------------------------------------------------|
A|------------------------------------------------------------|
F|------------------------------------------------------------|
C|------------------------------------------------------------|
G|------------------------------------------------------------|
C|--5--5--5--5--0--0--0--0--2--2--2--2--2--2--2--2--5--5--5--5|

D|------------------------------------|
A|------------------------------------|
F|------------------------------------|
C|--------------3--3--3--3--3--3--3--3|
G|--------------3--3--3--3--3--3--3--3|
C|--0--0--0--0--3--3--3--3--3--3--3--3|
                .  .  .  .  .  .  .  .
D|-15-15-15-15-15-15-15-15-19-19-19-19-14-14-14-14|
A|------------------------------------------------|
F|------------------------------------------------|
C|------------------------------------------------|
G|------------------------------------------------|
C|------------------------------------------------| X8

D|-15-15-15-15-15-15-15-15-19-19-19-19-14-14-14|
A|---------------------------------------------|
F|---------------------------------------------|
C|---------------------------------------------|
G|---------------------------------------------|
C|---------------------------------------------|

Chorus X2

D|----------------------------------------------------|
A|----------------------------------------------------|
F|----------------------------------------------------|
C|----------------------------------------------------|
G|----------------------------------------------------|
C|-0--0--0-0-0-0--0--0--0--0-0--0--0M-0--0--0-0--0--0-| X4 

Please rate and keep rockin.

            
            
Suggest correction
Creating personal tab
Creating personal tab
You can edit any tab online and save it as your Personal.

You can edit, replace or remove any tab part or add personal notes – all changes will be seen only by you.

Personal tabs can be accessed anytime from any device, even offline.
Learn more »
Give kudos to tab author, rate the tab!
1 2 3 4 5
comments
print report bad tab
guest
You may want to rate the tab now too:
select rating
Wanna post a correction for this tab? Suggest correction