Oops, an error
Loading. Please wait.
We have Chord Pro version of Especially For You.
It's the closest thing you can get to the original song and it has interactive parts. Check out the tab »
×
by MYMP
22,849 views 1 this week
4 commentsread comments
1 2 3 4 5
x 3
add to favorites
guitar tuner
Autoscroll
slow
fast
+/-
esc
set tempo
stop
"Especially For You"
demo version
Play now

or get full version for Free

×
Get full version now!
Learn and play this song
in Tab Pro
Try for free

or get $10 off Welcome Bonus

Get welcome bonus
Get access to Tab Pro version of “Especially For You”!
Tab Pro is a premium guitar tab service, available on PC, Mac, iOS and Android
TRY FOR FREE
Your download will start in 7 seconds
×
Like this song? We have more! Follow us on Facebook for daily tips, lessons and other guitar-related content.
To download “Especially For You” Guitar Pro tab click button below
Please note that you must have Guitar Pro software installed on your
computer in order to view this file.
Suggest correction
Give kudos to tab author, rate the tab!
1 2 3 4 5
comments
report bad tab
4 comments total. Showing first comments.
0 reply
Calgara Norland 10 Feb 15, 2007 05:46 AM

magaling magaling magaling... sugoi!

0 reply
lesterperez 10 Mar 23, 2008 10:21 PM

tol ok ang tab mo... 5 stars ^_^

0 reply
vanbeh 31 Jun 01, 2012 03:54 AM

Song: Especially for you
Artist: M.Y.M.P.

TAP= slap the string/strings
h = hammer on
p = pull off
/ = slide up
\ = slide down
x = dead string
+ = natural harmonic
[] = artificial harmonic
. = staccato effect
^ = strum

Intro:
C7add9 FMaj7
+ . .
E:---------|-------------------------------|-0---------------0---------|
B:---------|-3-------T---3-----------T-0---|-1-----1-T---1-------1---T-|
G:-T-x-----|-3-------A---3-----------A-----|-2-----2-A---2---------2-A-|
D:-A-x-----|---------------------3---------|---------------------------|
A:-P----1--|-3-------P---3-----------------|---------------------------|
E:---------|-------------------------P---0-|-1-------P---1-----------P-|

D7 Gm .
E:-----------------------------------|-------3-T-------3--------------|
B:-----3-----x-T---3---------3-T-x---|-3-----3-A---3-------3---T-x----|
G:-----5-----x-A---5---------5-A-x---|-3-----------3---------3-A-x----|
D:---------x-------4-----------------|-----------------------------2p0|
A:-----5-------P---5-------5---P-----|-------------------------P------|
E:-0-------------------------------0-|-3-------P---3---------------0--|

C7add9. F C/E
E:----------------3-------------|-----1---T---------------------|
B:3-----3-T---3-------3---T-x---|-----1---A-------5---5---T-----|
G:3-----3-A---3---------3-A-x---|-----------------5---5---A-----|
D:------------------------------|-----------------5-------------|
A:3-------P---3-----------P-----|-----------------------------0-|
E:----------------------------0-|-1-------P---0---0-------P-----|

Dmin/D# Bb/D Bbmin C7add9
.
E:-----5---5-------------------------------------------1---------|---|
B:-----6---6-----------3---T-----------2---T---2-------2---T-----|-3-|
G:---------------------3---A-----------3---A---1-------3---A-----|-3-|
D:-----------------0-------------------3-------3-----------------|---|
A:-6-------------------------------1-------P---1-----------------|-3-|
E:-------------0-----------P---1---------------------------P---0-|---|
(Repeat chord pattern for the verses until the chord strumming part)

Chord strumming part:

F A7 +
|-------------------------------|-------------------------------|
|-------------------------------|-------------------------------|
|-------------------------------|6---6---6----------------------|
|-------------------------------|--------------5-----5---5------|
|3---3---------3---x-3---3---0--|7---7---7---x-7---x-7---7---7-7|
|1---1---x---x-1---x-1---1---0-0|5---5---5---x-----x-5---5---5-5|
^ ^ ^ ^ ^ ^ ^ ^ ^ ^ ^ ^ ^ ^ ^ ^ ^ ^
Dmin7 . Bbmin7 .
|-------------------------------|------------------------------|
|--------6----------------------|--------2---------------2-----|
|5---5---------------5---5------|--------1---------------1-----|
|7---7-------x-7---x-7---7------|3---3-------x-3---x-3---------|
|5---5---------------5---5---0-0|1---1-------x-1---x-1---------|
|-------------------------------|----------------------------0-|
^ ^ ^ ^ ^ ^ ^ ^ ^ ^ ^ ^ ^ ^ ^ ^ ^ ^
Chorus:

Am7 . Dmin7 Gm . C7add9
|---------------------5---------|-----3---------------3---------|
|-----5---T---6---------6-T-----|-3---3---T---3---------3-T-x---|
|-----5-x-A---5-----------A-----|-3-----x-A---3-----------A-x---|
|-------------------------------|-------------------------------|
|---------P---5-----------------|---------P---3---3-------------|
|-5-----------------------P---0-|-3-----------------------P---0-|

Am7 Dmin7 Gm C7add9
|---------------------5---------|-----3---------------3---------|
|-5-------T---6---------6-T-x---|-3---3---T---3---------3-T-----|
|-5-------A---5-----------A-x---|-3-------A---3-----------A-----|
|-------------------------------|-------------------------------|
|---------P---5---5-------P-----|---------P---3---3-------------|
|-5---------------------------0-|-3-----------------------P---0-|

Am Dmin7 Gm C7susadd9
|-----5---------------5---------|-----3----------------------------|
|-5---5---T---6---------6-T-----|-3---3---T---3--------------T-----|
|-5-----x-A---5-----------A-----|-3-------A---3-------[17]---A-----|
|-------------------------------|-------------3--------------------|
|---------P---5---5-------P-----|---------P---3--------------------|
|-5---------------------------0-|-3--------------------------P---0-|

guest
You may want to rate the tab now too:
select rating