Oops, an error
Loading. Please wait.

Only Reminds Me Of You tab

version 1
version 1

Whole song

Interactive

by MYMP
91,376 views 78 this week
16 commentsread comments
1 2 3 4 5
x 14
add to favorites
×
Save as Personal and add changes to this tab that will be seen only by you. Learn more ›
×
You can save this tab as Personal to edit and correct it or add notes. All changes will be seen only by you. Learn more »
launch autoscroll
font size
0
reset
how to read this tab
guitar tuner
edit
Autoscroll
slow
fast
+/-
esc
set tempo
stop
Author
Only Reminds me of you - MYMP
Tabs by: AJ Albaniel

============================================================
============================================================

[Intro]

     C G Am F
e|-------------------------------------------------| 
B|------3--5-6-8-8-6-5---8-8-6-5-------------------|
G|-----5---------------7---------5---5-7-9-7-5-5---| x2 
D|----5----------------------------7---------------|
A|---3---------------------------------------------|
E|-------------------------------------------------|

[Verse 1]

           C
e|------3--------------| 
B|-----3---------------|
G|----5----------------| 
D|---5-----------------|
A|--3------------------|
E|---------------------|
  I see you 

           G
e|-------3-------------| 
B|------3--------------|
G|---------------------| 
D|-----5---------------|
A|----5----------------|
E|---3-----------------|
  beside me

           Am
e|-----0---------------| 
B|------1--------------|
G|----2----------------| 
D|---2-----------------|
A|--0------------------|
E|---------------------|
  It's only a dream

           F
e|------1--------------| 
B|-------1-------------|
G|---------------------| 
D|----3----------------|
A|---3-----------------|
E|--1------------------|
  A vision of what used to be

           C
e|------3--------------| 
B|-----3---------------|
G|----5----------------| 
D|---5-----------------|
A|--3------------------|
E|---------------------|
  The laughter 

           G
e|-------3-------------| 
B|------3--------------|
G|---------------------| 
D|-----5---------------|
A|----5----------------|
E|---3-----------------|
  The sorrow

           Am
e|-----0---------------| 
B|------1--------------|
G|----2----------------| 
D|---2-----------------|
A|--0------------------|
E|---------------------|
Pictures and time

           F
e|------1--------------| 
B|-------1-------------|
G|---------------------| 
D|----3----------------|
A|---3-----------------|
E|--1------------------|
Fading to memories



[Refrain 1]

           Em
e|-------0-------------| 
B|--------0------------|
G|---------0-----------| 
D|----2----------------|
A|---2-----------------|
E|--0------------------|
How could i 

           Am
e|-----0---------------| 
B|------1--------------|
G|----2----------------| 
D|---2-----------------|
A|--0------------------|
E|---------------------|
ever let you go

           Em
e|-------0-------------| 
B|--------0------------|
G|---------0-----------| 
D|----2----------------|
A|---2-----------------|
E|--0------------------|
Is it too 

           F
e|------1--------------| 
B|-------1-------------|
G|---------------------| 
D|----3----------------|
A|---3-----------------|
E|--1------------------|
late to let you know


[Chorus]

           C
e|-------0-------------| 
B|--------1------------|
G|----0----0-----------| 
D|---2-----------------|
A|--3------------------|
E|---------------------|
I tried to 

           G
e|-------3-------------| 
B|--------0------------|
G|---------0-----------| 
D|-----0---------------|
A|----2----------------|
E|---3-----------------|
run from your side

           Am
e|-----0---------------| 
B|------1--------------|
G|----2----------------| 
D|---2-----------------|
A|--0------------------|
E|---------------------|
But each place I hide

           F
e|------1--------------| 
B|-------1-------------|
G|---------------------| 
D|----3----------------|
A|---3-----------------|
E|--1------------------|
It only reminds me of you

           C
e|-------0-------------| 
B|--------1------------|
G|----0----0-----------| 
D|---2-----------------|
A|--3------------------|
E|---------------------|
When I turn 

           G
e|-------3-------------| 
B|--------0------------|
G|---------0-----------| 
D|-----0---------------|
A|----2----------------|
E|---3-----------------|
out all the lights

           Am
e|-----0---------------| 
B|------1--------------|
G|----2----------------| 
D|---2-----------------|
A|--0------------------|
E|---------------------|
Even the night

           F
e|------1--------------| 
B|-------1------------|
G|---------------------| 
D|----3----------------|
A|---3-----------------|
E|--1------------------|
It only reminds me of you

============================================================

[Verse 2]
[same as VERSE1]
  I needed my freedom
  This what I’ve thought
  But I was a fool to believe
  My heart lied while you cried
  Rivers of tears
  But I was too blind to see

[Refrain 2]
[same as REFRAIN1]
  Everything we’ve been through before
  Now it means so much more

        [Repeat CHORUS]
[Intro]

[Bridge]
[same as REFRAIN]
  So come back to me
  I’m down on my knees
  Boy can’t you see

        [Repeat REFRAIN2]
        [Repeat CHORUS] x2

[Outro]
[same as INTRO]

============================================================

-AJ Albaniel

            
            
Suggest correction
Creating personal tab
Creating personal tab
You can edit any tab online and save it as your Personal.

You can edit, replace or remove any tab part or add personal notes – all changes will be seen only by you.

Personal tabs can be accessed anytime from any device, even offline.
Learn more »
comments
print report bad tab
16 comments total. Showing first comments.
0 reply
ronjayrockstar 10 Apr 24, 2007 09:43 PM

maganda 2ng song na 2 sarap pakingan okay ung tab mo pero may mga part na bitin =) good job na din ^_^

0 reply
juberwalk 10 Apr 30, 2007 04:32 AM

ganda tlga nang song....ok ung tab mo pero may konting mali...ung chorus part,pareho lng sila sa intro....kulang din ung prang adlib sa gitara sa song....un lng... ;p

0 reply
ajeboy 113 Apr 30, 2007 07:34 AM

sowee po! sriling version ko kz yn eh...
sa keyboard kz pnlay ung song eh, kaya nhhrapan ako i-tab
nde na kz mgnda pg intro prn ung sa chorus... ehehe
kaya ginawan ko ng ibng plucking ung chorus
nwei tnx po sa comments pti sa rating! na appreciate ko un~ hehe
kau nalang sa adlib.. nde ko mrinig eh, heheh

eto pa po add nyo.. bka mkahelp
(with capo prn on 1st fret, so move lahat ng 1 fret)
gets nyo naman cguro un.. ehehehe

[after 1st chorus] C~F
[e][----------1~-----]
[B][----3-----1~-----]
[G][---5-5----2~-----]
[D][--5-------3~-----]
[A][-3--------3~-----]
[E][----------1~-----]

[outro] C
[e][-0---------------]
[B][--1--------------]
[G][---0-------------]
[D][----2------------]
[A][-3---3-----------]
[E][------0----------]

guest
You may want to rate the tab now too:
select rating
Wanna post a correction for this tab? Suggest correction