Oops, an error
Loading. Please wait.

La Plaza De La Soledad tab

32 views 1 this week
no commentswrite comment
1 2 3 4 5
3 more votes to show rating
add to favorites
×
Save as Personal and add changes to this tab that will be seen only by you. Learn more ›
×
You can save this tab as Personal to edit and correct it or add notes. All changes will be seen only by you. Learn more »
launch autoscroll
font size
0
reset
how to read this tab
guitar tuner
edit
Autoscroll
slow
fast
+/-
esc
set tempo
stop
Intro (X4):

E------------------------------------
B------------1-1--1------------------
G------------------------------------
D------0/2----------0/2-2------------
A--0-------0----------------0--------
E------------------------------------

Riff 1

E------------------------------------
B------------------------------------
G-----7/9--9--7--5--7----------------
D------------------------7---------
A------------------------------------
E------------------------------------


(Se puede usar el riff Intro durante las partes en que la cancion
va en tono de Am)

Am                        F      G          Am
Al llegar al puerto subes por el barrio pescador.
                      F      G             Am
Dejas a tu izquierda aguas sucias bajo el sol.

Y sobre tu cabeza chillan,
              F     G             Am
dando vueltas, gaviotas que te guiaran
                                F     G       Am
Solo avanza un poco mas, y quizas me oigas cantar:

F             G            Am
¿Quien me habra robado el sol,
E                        Am  Riff 1
que hoy no siento su calor
F      G            Am
y las ropas que cubrian mi piel
E                 Am  Riff 1
han tornado desnudez?
F            G
Si es que escuchas esto,
   Am            F        G        Am
habras llegado a la plaza de La Soleda.


F - G - Am - E - Am

(He hecho un arreglo de guitarra para esta parte de la cancion)

E--------------------------------------------------------------
B----------------------------5/6--5----------------------------
G------------------------------------7--5--4--7--5/4/5---------
D--------7--5--9--10--9--7-------------------------------------
A---3/5--------------------------------------------------------
E--------------------------------------------------------------


E--------------------------------------------------------------
B----------------------------5/6--5----------------------------
G------------------------------------7--5--4--7--5/4/5---------
D--------7--5--9--10--9--7-------------------------------------
A---3/5--------------------------------------------------------
E--------------------------------------------------------------

E--------5--3--7--8--7--5--12--13--12--10--8--7--5-------------
B---3/5--------------------------------------------------------
G--------------------------------------------------------------
D--------------------------------------------------------------
A--------------------------------------------------------------
E--------------------------------------------------------------


Veras a un anciano que te hara alguna indicaci?n.
No le hagas caso, ello supondria un grave error.
Y sobre tu cabeza siguen
dando vueltas gaviotas que te guiaran.
Atraviesa el callejon. ?Es que no oyes mi voz?


F             G            Am
¿Quien me habra robado el sol,
E                        Am  Riff 1
que hoy no siento su calor
F      G            Am
y las ropas que cubrian mi piel
E                 Am  Riff 1
han tornado desnudez?
F            G
Cuando escuches esto,
      Am         F         G        Am
habras llegado a la plaza de La Soleda.

       F             G            Am
pero  ¿Quien me habra robado el sol,
E                        Am  Riff 1
que hoy no siento su calor
F      G            Am
y las ropas que cubrian mi piel
E                 Am  Riff 1
han tornado desnudez?
F            G
Cuando escuches esto,
      Am         F         G        Am
habras llegado a la plaza de La Soleda.

F         G          Am
La plaza de la Soleda     [x2]

            
            
Suggest correction
Creating personal tab
Creating personal tab
You can edit any tab online and save it as your Personal.

You can edit, replace or remove any tab part or add personal notes – all changes will be seen only by you.

Personal tabs can be accessed anytime from any device, even offline.
Learn more »
Give kudos to tab author, rate the tab!
1 2 3 4 5
comments
print report bad tab
guest
Wanna post a correction for this tab? Suggest correction