Oops, an error
Loading. Please wait.

Seronda tab

89 views 1 this week
no commentswrite comment
1 2 3 4 5
3 more votes to show rating
add to favorites
×
Save as Personal and add changes to this tab that will be seen only by you. Learn more ›
×
You can save this tab as Personal to edit and correct it or add notes. All changes will be seen only by you. Learn more »
launch autoscroll
font size
0
reset
how to read this tab
guitar tuner
edit
Autoscroll
slow
fast
+/-
esc
set tempo
stop
Hola! Esta es mi primera transcripción,
sin embargo, me parece que suena fiel a la grabación.
Espero que no sean muy duros con sus calificaciones.
Bien, el instrumento que suena en el intro,
y en algunos pasajes de la canción es un theremín.
Se puede emular un poco el sonido del theremín
usando un pedal wah-wah
sin distorsión y con la adecuada configuración.
Aquí pongo la transcripción para guitarra.

SERONDA ("Otoño" en Asturiano)

e|--------------------------------------------|
b|----6----6----------------6----6------------|
g|------7----7----------------7----7----------|
d|--8-----7----5---5s7----8-----7----5---5s7s0|
a|--------------------------------------------|
E|--------------------------------------------|
   s=slide

Al mismo tiempo que una guitarra toca lo anterior,
una segunda guitarra realiza el siguiente arpegio
y lo toca a lo largo de la canción
donde se indican los acordes.
(Úsense acordes con cejilla)

 A#            Dm           Gm           F

e|------6-----|------5-----|-----3------|-----1------|
b|---6---6-6--|---6---6-6--|---3--3-3---|---1--1-1---|
g|--7-----7---|--7-----7---|--3----3----|--2----2----| (X2)
d|------------|------------|------------|------------|
a|------------|-5--5-------|------------|------------|
E|-6--6-------|------------|-3--3-------|-1--1-------|

      A#      Dm           Gm   F
Ya no sé si merecerá la pena

   A#          Dm     Gm     F
Partir hacia otro lugar

      A#        Dm            Gm     F
Ya no sé, si con esta lluvia eterna

        A#         Dm             Gm   F
No me habré acostumbrado a la humedad

         A#      Dm            Gm    F
Yo que creí ser amable con la luna

      A#         Dm               Gm    F
Encontré su palidez allí en mi hogar

F                  A#
En mi propio hogar

      Dm         Gm
Ya no sé si esta vez

       F            A#
Todo está dentro de mí

     Dm           Gm   F
Y ya no puedo escapar

A#    Dm          Gm
Ya no sé si esta vez

      F               A#
Todo está dentro de mí

     Dm         Gm     F   F
Y ya no puedo escapar

(Riff del intro)
(Se sigue con la misma progresión de acordes
a lo largo de toda la canción)

Decidí que no hay nada que perder
Sale un tren hoy antes del anochecer
Probaré a ser otra persona
Probaré a morir un poco y volveré
Y me acercaré hasta aquí sólo para ver
Las arrugas arañadas en la piel
Y poder comprobar
Todo lo que cambió
Y todo lo que sigue igual
Y que así seguirá
Poder comprobar
Todo lo que cambió
Y todo lo que sigue igual
Condenado a no cambiar
Condenado a no cambiar
condenado a no cambiar

Intro

*(Riff del Intro en estas estrofas)*
   A#        Dm            Gm
*Volveré a las noches sin dormir*
        F             A#
*Y las noches sin pensar*
        Dm           Gm
*Y las noches sin soñar*
        F             A#
*Y las noches sin sentir*
        Dm             Gm
*Y las noches sin poder pensar*
       F              A#
*Y las noches sin dormir*

(Toque la segunda guitarra el siguiente riff
al tiempo que las estrofas siguientes son acompañadas por el arpegio)
e|--------------------------------------------|
b|----6----6----------------------------------|
g|------7----7--------------------------------|
d|--8-----7----5---7---8---10--12-------------|
a|--------------------------------------------|
E|--------------------------------------------|

      Dm           Gm
Y las noches sin sentir

F                     F
Y las noches sin soñar

Una vez más...

d|-----------------------|------------|
a|-----------------------|--5---------|
E|-6-6-6-8-9-5--5-5-6-7-3|-6-6-5-8-5--|

d|------------------------|------------|
a|------------------------|--5---------|
E|-6-6-6-8-9-5--5-5-6-7s10|-6-6-5-8-5--|

(y se repite el final)


esa fue mi colaboración. Gracias!

            
            
Suggest correction
Creating personal tab
Creating personal tab
You can edit any tab online and save it as your Personal.

You can edit, replace or remove any tab part or add personal notes – all changes will be seen only by you.

Personal tabs can be accessed anytime from any device, even offline.
Learn more »
Give kudos to tab author, rate the tab!
1 2 3 4 5
comments
print report bad tab
guest
Wanna post a correction for this tab? Suggest correction