Oops, an error
Loading. Please wait.

Rapture chords

version 3
version 3

Whole song

148 views 3 this week
no commentswrite comment
1 2 3 4 5
3 more votes to show rating
add to favorites
×
Save as Personal and add changes to this tab that will be seen only by you. Learn more ›
×
You can save this tab as Personal to edit and correct it or add notes. All changes will be seen only by you. Learn more »
launch autoscroll
font size
0
reset
transpose
0
reset
display chords
guitar tuner
edit
Autoscroll
slow
fast
+/-
esc
set tempo
stop
Author
Difficulty
Strumming
There is no strumming pattern for this song yet. and get +5 IQ
-------------------------------------------------------------------------------
                             Rapture - Nadia Ali (Avicii Remix)
-------------------------------------------------------------------------------

Tuning: Standard
Capo: No

-------------------------------------------------------------------------------

Fm  Bbm             Ab      Cm
The night I laid my eyes on you

Fm   Bbm           Ab     Cm
Felt everything around me move

Fm  Bbm              Ab        Cm
Got nervous when you looked my way

Fm  Bbm              Ab       Cm
But you knew all the words to say

--

Fm   Bbm          Ab     F#       Bbm Fm F#
Then your love slowly moved right in

Fm       Bbm         Ab    F#          Bbm Fm F#            
All this time, oh my love, where you been?

--

Bbm                 Ab
Mi amore, don't you know?

   F#               Bbm Fm F#
My love, I want you so

Bbm                          Ab
Sugar you make my soul complete

F#                  Bbm Fm F#
Rapture tastes so sweet


e|---------------------------------------------------------------------------|
B|--------11-9----9----------------------------------------------------------|
G|-------------10---8----8-10------------------------------------------------|
D|------8-------------11------8----------------------------------------------|  *repeat 13 times*
A|---------------------------------------------------------------------------|
E|---------------------------------------------------------------------------|

Fm    Bbm            Ab        Cm
Since we connect behind closed doors

Fm    Bbm       Ab   Cm
Spark this fire even more

Fm Bbm              Ab      Cm
No telling where we will be next

Fm Bbm            Ab      Cm
Surrender to your rapture arrest

--

Fm   Bbm          Ab     F#       Bbm Fm F#
Lay your head, let the slumber float

Fm       Bbm         Ab    F#          Bbm Fm F#
Can't resist, that's why words were wrote

--


Bbm                 Ab
Mi amore, don't you know?

   F#               Bbm Fm F#
My love, I want you so

Bbm                          Ab
Sugar you make my soul complete

F#                  Bbm Fm F#
Rapture tastes so sweet

--

"Pre chorus": Bbm Ab F# Bbm Fm F#

--

e|---------------------------------------------------------------------------|
B|--------11-9----9----------------------------------------------------------|
G|-------------10---8----8-10------------------------------------------------|
D|------8-------------11------8----------------------------------------------|  *repeat 14 times*
A|---------------------------------------------------------------------------|
E|---------------------------------------------------------------------------|



            
            
Suggest correction
Creating personal tab
Creating personal tab
You can edit any tab online and save it as your Personal.

You can edit, replace or remove any tab part or add personal notes – all changes will be seen only by you.

Personal tabs can be accessed anytime from any device, even offline.
Learn more »
Give kudos to tab author, rate the tab!
1 2 3 4 5
comments
print report bad tab
guest
You may want to rate the tab now too:
select rating
Wanna post a correction for this tab? Suggest correction