Oops, an error
Loading. Please wait.

Mejor Me Voy A Dormir tab

by Nadie
78 views 1 this week
no commentswrite comment
1 2 3 4 5
3 more votes to show rating
add to favorites
×
Save as Personal and add changes to this tab that will be seen only by you. Learn more ›
×
You can save this tab as Personal to edit and correct it or add notes. All changes will be seen only by you. Learn more »
launch autoscroll
font size
0
reset
how to read this tab
guitar tuner
edit
Autoscroll
slow
fast
+/-
esc
set tempo
stop
ustedes la pidieron aquì està.


  NADIEIDAN
  A       A
  D NADIE D      MEJOR ME VOY A DORMIR
  I       I
  EIDANADIE


INTRO
   A5
E|--5--------------------5------------------|
B|--5--------------------5------------------|
G|--5--------------------5------------------|
D|--7--------------------7------------------|
A|--7------3333-5555-4---7------9999-777-8--|
E|-55-5555-------------5-5-5555-------------|

E|--5--------------------5----------------------|
B|--5--------------------5----------------------|
G|--5--------------------5----------------------|
D|--7--------------------7----------------------|
A|--7------3333-5555-4---7------999-888-777/5-5-|
E|-55-5555-------------5-5-5555-----------------|

VERSO -1-
E|---------------------------|
B|---------------------------|
G|---------------------------|
D|---------------------------|
A|-5x5x5x5x5x5-3x3x3x3x3-----|
E|-----------------------5x5-|
luces y màs moda, avisos que te compran

VERSO -2-
E|---------------------5-x-5-5-|
B|---------------------5-x-5-5-|
G|---------------------5-x-5-5-|
D|---------------------7-x-7-7-|
A|-5x5x5x5x5x5-3x3x3x3-7-x-7-7-|
E|---------------------5-x-5-5-|
se me ha hinchado el cerebro,en medio de tanta droga!


VERSO -1-
E|---------------------------|
B|---------------------------|
G|---------------------------|
D|---------------------------|
A|-5x5x5x5x5x5-3x3x3x3x3-----|
E|-----------------------5x5-|
agua de mar, escupa de un idiota

VERSO -2-
                      A5
E|---------------------5-x-5-5-|
B|---------------------5-x-5-5-|
G|---------------------5-x-5-5-|
D|---------------------7-x-7-7-|
A|-5x5x5x5x5x5-3x3x3x3-7-x-7-7-|
E|---------------------5-x-5-5-|
que se babea explicandome, el uso de lagrima droga!!

interlude -1-

E|--5--------------------5------------------|
B|--5--------------------5------------------|
G|--5--------------------5------------------|
D|--7--------------------7------------------|
A|--7------3333-5555-4---7------9999-777-8--|
E|-55-5555-------------5-5-5555-------------|

E|--5--------------------5----------------------|
B|--5--------------------5----------------------|
G|--5--------------------5----------------------|
D|--7--------------------7----------------------|
A|--7------3333-5555-4---7------999-888-777/5-5-|
E|-55-5555-------------5-5-5555-----------------|


VERSO -1-
E|---------------------------|
B|---------------------------|
G|---------------------------|
D|---------------------------|
A|-5x5x5x5x5x5-3x3x3x3x3-----|
E|-----------------------5x5-|
dame màs intenso, desatame del miedo

VERSO -2-
E|---------------------5-x-5-5-|
B|---------------------5-x-5-5-|
G|---------------------5-x-5-5-|
D|---------------------7-x-7-7-|
A|-5x5x5x5x5x5-3x3x3x3-7-x-7-7-|
E|---------------------5-x-5-5-|
dejame ser un borrego en los pies de la moda

CORO
       D5       C5       A5
  E|---5-5-5-5--3-3-3-3--5-5-5-5--5-5-5-5--|
  B|---5-5-5-5--3-3-3-3--5-5-5-5--5-5-5-5--|
  G|---7-7-7-7--5-5-5-5--5-5-5-5--5-5-5-5--|
  D|---7-7-7-7--5-5-5-5--7-7-7-7--7-7-7-7--|  x2
  A|---5-5-5-5--3-3-3-3--7-7-7-7--7-7-7-7--|
  E|-5-------------------5-5-5-5--5-5-5-5--|
¡Y POR ESO, MEJOR! me voy a dormir tanta moda marea
por eso mejor, me voy a dormir la moda me astea.

intermlude -2-

E|---5-5-5-5-|
B|---5-5-5-5-|
G|---5-5-5-5-|
D|---7-7-7-7-| x8
A|---7-7-7-7-|
E|-5-5-5-5-5-|
me hablas de repente
me miras fijamente
no puedes entenderlo
que hullo sin entender

repite- CORO

DESPUES VA INTERMEDIO RAPIDO,
E|--------------------------------------------------------------|
B|--------------------------------------------------------------|
G|--------------------------------------------------------------|
D|--------------------------------------------------------------|
A|-9/7-777777777-33333-555-5-5-77777777777777777777-555-777-555-|
E|--------------------------------------------------------------|

E|-------------------|
B|-------------------|
G|-------------------|
D|-------------------|
A|-9///////12//////9-|
E|-------------------|

E|----------------------------------------------------------------|
B|----------------------------------------------------------------|
G|----------------------------------------------------------------|
D|----------------------------------------------------------------|
A|-777777777/////////14//////9-999999-13131313-121212-11-11-11-11-|
E|----------------------------------------------------------------|


E|------------------------------------------------------|
B|------------------------------------------------------|
G|------------------------------------------------------|
D|------------------------------------------------------|
A|-999999-12.12.12.12.12.12-11.11.11.11.-13.13.13.13bb--|
E|------------------------------------------------------|

E|------------------------------------|
B|------------------------------------|
G|------------------------------------|
D|------------------------------------|
A|-555-777-55-99/////712////999999///-|
E|------------------------------------|
ahì està este màs o menos- no esta muy bien ..

Y  LUEGO EL CORO.


ESTO ES MÀS O MENOS LA TAB.


EN ESTOS DIAS LE SACO EL RESTO.
todo bien .
descarga voltios!!!!!!!!!


ruffuz666@
2800 voltios

            
            
Suggest correction
Creating personal tab
Creating personal tab
You can edit any tab online and save it as your Personal.

You can edit, replace or remove any tab part or add personal notes – all changes will be seen only by you.

Personal tabs can be accessed anytime from any device, even offline.
Learn more »
Give kudos to tab author, rate the tab!
1 2 3 4 5
comments
print report bad tab
guest
Wanna post a correction for this tab? Suggest correction