Oops, an error
Loading. Please wait.

Sonido Bestial tab

by Nadie
86 views 1 this week
no commentswrite comment
1 2 3 4 5
3 more votes to show rating
add to favorites
×
Save as Personal and add changes to this tab that will be seen only by you. Learn more ›
×
You can save this tab as Personal to edit and correct it or add notes. All changes will be seen only by you. Learn more »
launch autoscroll
font size
0
reset
how to read this tab
guitar tuner
edit
Autoscroll
slow
fast
+/-
esc
set tempo
stop
INTRO: TROMPETA
E|------------------------------------------|
B|---------------16-18v----18-16------------|
G|-15~~--1515-18-----------------18-16-15v--|
D|------------------------------------------|
A|------------------------------------------|
E|------------------------------------------|

INTRO: GUITARRA:
E|---------------------|-------------------|
B|---------------X3----|-------------------|
G|---------------------|-------------------|
D|-88-8-X8-8/999-8/999-|-88-8-X8-----------|
A|-88-8-X8-8/999-8/999-|-88-8-X8-----------|
E|-66-6-X6-6/777-6/777-|-66-6-X6-9-8-7-6-4-|


A#5           A#5 G#5 B5
Sonido bestial
A#5             A#5 G#5 B5
Un poco tronador
A#5                 A#5 G#5 B5
El abismo es la matriz
A#5                    A#5 B5 G#5
para el arte y el sudor
A#5                   A#5 G#5 B5
Regreciones del pasado
A#5                      A#5 G#5 B5
El infierno esta que arde
A#5                 A#5 G#5 B5
Se desgarra el acero
A#5                       A#5 B5 G#5
Y este ruido va reventando

E|----------------------------------------|
B|----------------------------------------|
G|----------------------------------------|
D|-8888-99--8888-99--8888-99--8/999-8/999-| X2
A|-8888-99--8888-99--8888-99--8/999-8/999-|
E|-6666-77--6666-77--6666-77--6/777-6/777-|

A#5             A#5 G#5 B5
Limites quebrados
A#5             A#5 G#5 B5
El vuelo es alto
A#5             A#5 G#5 B5
Cae despacio
A#5                        A#5 B5 G#5
Y este es un sueño engendrado
A#5             A#5 G#5 B5
Gritos permanentes
A#5             A#5 G#5 B5
Fluye la energia
A#5                  A#5 G#5 B5
Frecuencias qUE brillan
A#5                       A#5 B5 G#5
sin medida en la oscuridad

E|----------------------------------------|-----|
B|---------------------------------X2-----|-----|
G|----------------------------------------|-----|
D|-8888-99--8888-99--8888-99--8/999-8/999-|-6~~-|
A|-8888-99--8888-99--8888-99--8/999-8/999-|-6~~-|
E|-6666-77--6666-77--6666-77--6/777-6/777-|-4~~-|

E|---------------------|
B|---------------------|
G|---------------------|
D|---------------------| X4
A|---------------------|
E|-66666666-777-666-44-|
   |--------pm--------|

A#5                         A#5 B5 G#5
Sonido Sonido Sonido Bestial
A#5                         A#5 B5 G#5
Sonido Sonido Sonido Tronador
A#5                                          A#5 B5 G#5
Es un ruido Es un ruido q se quma en mi interior
A#5                          A#5 B5 G#5
Sonido Sonido Sonido BESTIAAAL!!

E|------------------------------------------|
B|---------------16-18v----18-16------------|
G|-15~~--1515-18-----------------18-16-15~~-|
D|------------------------------------------|
A|------------------------------------------|
E|------------------------------------------|

E|---------------------------------------|
B|---------------------------------------|
G|---------------15-15-13--------13-15V--|
D|-15~~--15-14v-----------15~~-----------|
A|---------------------------------------|
E|---------------------------------------|


ACORDES:
E|-----X-----X-----X-----| pm = pam mute
B|-----X-----X-----X-----| ~~ = let ring
G|-----X-----X-----X-----|  / = slide
D|-----8-----6-----9-----|  v = vibrato
A|-----8-----6-----9-----|
E|-----6-----4-----7-----|
      A#5   G#5    B5

- LO MAS COMPLICADO DE LA CANCION ES COJERLE BIEN EL RITMO DE LOS
  ACORDES PARA QUE SUENE COMO ES PORQUE ADEMAS LOS ACORDES ESTAN BIEN
- DUDAS, COMENTARIOS, CORRECCIONES O CANCIONES DE CHITE AL CORREO
  ROCKANDRES182@

            
            
Suggest correction
Creating personal tab
Creating personal tab
You can edit any tab online and save it as your Personal.

You can edit, replace or remove any tab part or add personal notes – all changes will be seen only by you.

Personal tabs can be accessed anytime from any device, even offline.
Learn more »
Give kudos to tab author, rate the tab!
1 2 3 4 5
comments
print report bad tab
guest
Wanna post a correction for this tab? Suggest correction