Oops, an error
Loading. Please wait.

Tortura Invertida tab

by Nadie
33 views 1 this week
no commentswrite comment
1 2 3 4 5
3 more votes to show rating
add to favorites
×
Save as Personal and add changes to this tab that will be seen only by you. Learn more ›
×
You can save this tab as Personal to edit and correct it or add notes. All changes will be seen only by you. Learn more »
launch autoscroll
font size
0
reset
how to read this tab
guitar tuner
edit
Autoscroll
slow
fast
+/-
esc
set tempo
stop
INTRO:
E|-8-10-11---10-8------------------------------------------|
B|----------------11-9-8---8-7-8---6-5-6-8---86---4-6-4-3--|
G|---------------------------------------------------------|
D|---------------------------------------------------------| X2
A|---------------------------------------------------------|
E|---------------------------------------------------------|

E|-------------------------------------|
B|-------------------------------------|
G|-------------------7-77-777-5-55-555-|
D|-5-55-555-5-55-555-7-77-777-5-55-555-| X2
A|-5-55-555-5-55-555-5-55-555-3-33-333-|
E|-3-33-333-3-33-333-------------------|

OLE¡(con distorcion)
E|-------------------------------------|
B|-------------------------------------|
G|-5-555555-5-555555-------------------| X2
D|-5-555555-5-555555-6-666666-5-555555-|
A|-3-333333-3-333333-6-666666-5-555555-|
E|-------------------4-444444-3-333333-|

C5
Sábado en la tarde en la Macarena
G#5            G5
todos los toros a la faena
C5                       G#5
con su boleta en la mano para entrar
G5
a la corrida!
C5
de un humano
G#5          G5
con un traje de piñata
C5
llamado por todos
G#5             G5
esos ignorantes un torero

E|------------------------------------|
B|------------------------------------|
G|----------55555555------------------|
D|-66666666-55555555-8888888888888888-| x2
A|-66666666-33333333-8888888888888888-|
E|-44444444----------6666666666666666-|

G#5       C5          A#5
Como quisiera ver ese humanO
G#5           C5       A#5
con traje de piñata en el ruedo
G#5       C5           A#5
muchas banderillas a su costado
G#5      C5        A#5
y en su cara ver el miedo


G5     G#5       A#5
Todos los toros gritan ole!
G5     G#5       A#5
Todos los toros gritan ole!
G5     G#5       A#5
Todos los toros gritan ole!
G5     G#5       A#5
Todos los toros gritan ole!


E|------------------------------------|
B|------------------------------------|
G|----------55555555------------------|
D|-66666666-55555555-8888888888888888-|
A|-66666666-33333333-8888888888888888-|
E|-44444444----------6666666666666666-|

G#5    C5       A#5
Que placer el que me da
G#5      C5        A#5
ver ese idiota en el suelo
G#5       C5           A#5
ahogandose con su propia sangre
G#5   0   C5       A#5
y los toros pidiendo oreja


G5     G#5       A#5
Todos los toros gritan ole!
G5     G#5       A#5
Todos los toros gritan ole!


ACORDES:
E|-----X------X------X------X-----|
B|-----X------X------X------X-----|
G|-----X------X------5------X-----|
D|-----5------6------5------8-----|
A|-----5------6------3------8-----|
E|-----3------4------X------6-----|
       G5    G#5     C5    A#5

            
            
Suggest correction
Creating personal tab
Creating personal tab
You can edit any tab online and save it as your Personal.

You can edit, replace or remove any tab part or add personal notes – all changes will be seen only by you.

Personal tabs can be accessed anytime from any device, even offline.
Learn more »
Give kudos to tab author, rate the tab!
1 2 3 4 5
comments
print report bad tab
guest
Wanna post a correction for this tab? Suggest correction