Oops, an error
Loading. Please wait.

Cynicism tab

19,509 views 45 this week
1 commentread comment
1 2 3 4 5
x 15
add to favorites
×
Save as Personal and add changes to this tab that will be seen only by you. Learn more ›
×
You can save this tab as Personal to edit and correct it or add notes. All changes will be seen only by you. Learn more »
launch autoscroll
font size
0
reset
how to read this tab
guitar tuner
edit
Autoscroll
slow
fast
+/-
esc
set tempo
stop
[Capo 4]

[Intro + Verse]
   C               F               G
E|----------0------------------------------------------------------|
B|-------------1------------1---------------0---------------0------|
G|---0---0-------0---2---2-----2-----0---0-----0-----0---0-----0---|
D|-----2---------------3---------3-----0---------0-----0---------0-|
A|-3---------------------------------------------------------------|
E|-----------------1---------------3---------------3---------------|
(I once saw a sunset so vivid and warm that I swore it was perfect
I once had a lover, I'm not sure if I'll recover, but I know it was worth it
Then, last night in the car, the falling raindrops looked like stars of some incalculable speed)

[Chorus]
   F                               C
E|------------------------------------------0---------------0------|
B|----------1---------------1------------------1---------------1---|
G|---2---2-----2-----2---2-----2-----0---0-------0---0---0-------0-|
D|-----3---------3-----3---------3-----2---------------2-----------|
A|---------------------------------3---------------3---------------|
E|-1---------------1-----------------------------------------------|
(Then later, my friends said "Good to see you again, this is a home to me"
So I wrote a song and I called it "The Love of my Life")

   F                               G
E|---------------------------------------------------------0-------|
B|----------1---------------1---------------0---------------0------|
G|---2---2-----2-----2---2-----2-----0---0-----0-----0---0-----0---| 
D|-----3---------3-----3---------3-----0---------0-----0---------0-|
A|-----------------------------------------------------------------|
E|-1---------------1---------------3---------------3---------------|
(Said "don't be gone long", it now sings me to sleep every night)

[Verse 2]
   C               F               G
E|----------0------------------------------------------------------|
B|-------------1------------1---------------0---------------0------|
G|---0---0-------0---2---2-----2-----0---0-----0-----0---0-----0---|
D|-----2---------------3---------3-----0---------0-----0---------0-|
A|-3---------------------------------------------------------------|
E|-----------------1---------------3---------------3---------------|
(And I never learned a lesson looking at my own reflection, but sometimes it seems useful
So I loosen my heart strings in high hopes of starting to find something truthful)

[Chorus]
   F                               C
E|------------------------------------------0---------------0------|
B|----------1---------------1------------------1---------------1---|
G|---2---2-----2-----2---2-----2-----0---0-------0---0---0-------0-| 
D|-----3---------3-----3---------3-----2---------------2-----------|
A|---------------------------------3---------------3---------------|
E|-1---------------1-----------------------------------------------|
(Cynicism isn't wisdom, it's a lazy way to say that you've been burned)

   F
E|--------------------------1----|
B|----------1--------------------|
G|---2---2-----2-----2---2-----2-| 
D|-----3---------3-----3---------|
A|-------------------------------|
E|-1---------------1-------------|
(It seems, if anything, you'd be less certain after everything you ever learned )

[Outro]
   C               F               G
E|----------0------------------------------------------------------|
B|-------------1------------1---------------0---------------0------|
G|---0---0-------0---2---2-----2-----0---0-----0-----0---0-----0---|
D|-----2---------------3---------3-----0---------0-----0---------0-|
A|-3---------------------------------------------------------------|
E|-----------------1---------------3---------------3---------------|

            
            
Suggest correction
Creating personal tab
Creating personal tab
You can edit any tab online and save it as your Personal.

You can edit, replace or remove any tab part or add personal notes – all changes will be seen only by you.

Personal tabs can be accessed anytime from any device, even offline.
Learn more »
comments
print report bad tab
1 comment total.
+4 reply
tkogg 56 Apr 14, 2015 08:10 PM

Chorus should be
F Fm C
E|------------------------------------------0---------------0------|
B|----------1---------------1------------------1---------------1---|
G|---2---2-----2-----1---1-----1-----0---0-------0---0---0-------0-|
D|-----3---------3-----3---------3-----2---------------2-----------|
A|---------------------------------3---------------3---------------|
E|-1---------------1-----------------------------------------------|

guest
You may want to rate the tab now too:
select rating
Wanna post a correction for this tab? Suggest correction