Oops, an error
Loading. Please wait.

Calavera tab

54 views 1 this week
no commentswrite comment
1 2 3 4 5
3 more votes to show rating
add to favorites
×
Save as Personal and add changes to this tab that will be seen only by you. Learn more ›
×
You can save this tab as Personal to edit and correct it or add notes. All changes will be seen only by you. Learn more »
launch autoscroll
font size
0
reset
how to read this tab
guitar tuner
edit
Autoscroll
slow
fast
+/-
esc
set tempo
stop
Eeeeaaa!! no podia faltar esta rola y si la pude sacar pero bueno
vamos a elloooo

Nana pancha - Calavera

Acordes:


  DO    LA#
--8------6---
--8------6---
--9------7---
--10-----8---
--10-----8---
--8------6---

Intro: Va por quintas

-------------------------------------------
-------------------------------------------
--8-----------------------8----------------
--8--8--10/0----8--10/0---8--10--10/0------
--6--8--10/0----8--10/0---6--10--10/0------
-----6--8-/0----6--8-/0------6---8-/0------


-------------------------------------------
-------------------------------------------
--8---------8------12--8--9--10--11--12----
--8--8--10--8--10--12--8--9--10--11--12----
--6--8--10--6--10--10--6--7--8---9---10----
-----6--8------8---------------------------


Calavera calavera de folclor llena mi sangre
--------------------------------------------
--------------------------------------------
-5-------8-8------5----------8-8------------
-5---5---8-8--8---5--5-------8-8------8-----
-3---5---6-6--8---3--5-------6-6------8-----
-----3--------6------3----------------6-----


Calavera dulce espera el folclor esta en el aire
-------------------------------------------------
-------------------------------------------------
-5-------8-8-----------5----------8-8------------
-5---5---8-8---8-------5--5-------8-8------8-----
-3---5---6-6---8-------3--5-------6-6------8-----
-----3---------6----------3----------------6-----

DO,LA#  X4


DO        LA#          DO          LA#      DO           LA#
La noche en el barrio acaba de empezar con el perfume de las

       DO               LA#
Flores nos volvemos a encontrar

DO                 LA#      DO              LA#
Esta noche entre las tumbas bailaremos sin rencores

DO                LA#      DO          LA#
Con la dueña de mi vida cantaremos sus canciones


Calavera calavera de folclor llena mi sangre
--------------------------------------------
--------------------------------------------
-5-------8-8------5----------8-8------------
-5---5---8-8--8---5--5-------8-8------8-----
-3---5---6-6--8---3--5-------6-6------8-----
-----3--------6------3----------------6-----


Calavera dulce espera el folclor esta en el aire
-------------------------------------------------
-------------------------------------------------
-5-------8-8-----------5----------8-8------------
-5---5---8-8---8-------5--5-------8-8------8-----
-3---5---6-6---8-------3--5-------6-6------8-----
-----3---------6----------3----------------6-----


DO,LA#  X4


La noche de los muertos esta lista para comenzar,
---------------------------------------------------
---------------------------------------------------
---------------------------------------------------
---------------------------------------------------
----------------------------------------6----------
-------------------------------------------6--8/0--


Con cada trago un instante para recordar
-------------------------------------------------
-------------------------------------------------
-------------------------------------------------
-------------------------------------------------
-------------------------------------------------
-----------------------------------6--8/0------------


Lo felices que juntos soliamos ser aqui
-------------------------------------------------
-------------------------------------------------
-------------------------------------------------
-------------------------------------------------
-------------------------------6------------------
-----------------------------------6--8/0------------


Este momento tan pequeño no puedo dejarte!!!
-------------------------------------------------
-------------------------------------------------
-------------------------------------------------
-------------------------------------------------
-------------------------------------------------
----------------------------------6---8/0--------


DO             LA#     DO         LA#    DO           LA#
Quiero ser el ultimo que quede en pie esta noche con la muerte

DO               LA#
Bailare hasta el amanecer


Calavera calavera de folclor llena mi sangre
--------------------------------------------
--------------------------------------------
-5-------8-8------5----------8-8------------
-5---5---8-8--8---5--5-------8-8------8-----
-3---5---6-6--8---3--5-------6-6------8-----
-----3--------6------3----------------6-----


Calavera dulce espera el folclor esta en el aire
-------------------------------------------------
-------------------------------------------------
-5-------8-8-----------5----------8-8------------
-5---5---8-8---8-------5--5-------8-8------8-----
-3---5---6-6---8-------3--5-------6-6------8-----
-----3---------6----------3----------------6-----


---------------------------
---------------------------
--5-5--4--5-5---10--8--6---
--5-5--4--5-5---10--8--6---
--3-3--2--3-3---8---6--4---
---------------------------


                Calavera!!               Calavera!!
-------------------------------------------------
-------------------------------------------------
--5----8----5---12--------5----8----5----12------
--5----8----5---12--------5----8----5----12------
--3----6----3---10--------3----6----3----10------
-------------------------------------------------

                Calavera!!
--------------------------
--------------------------
--5----8----5---12--------
--5----8----5---12--------
--3----6----3---10--------
--------------------------


-------------------------------------------------
-------------------------------------------------
--5----8----5---12--------5----8----5----12------
--5----8----5---12--------5----8----5----12------
--3----6----3---10--------3----6----3----10------
-------------------------------------------------


-------------------------------------------------
-------------------------------------------------
--5----8----5---12--------5----8----5----12------
--5----8----5---12--------5----8----5----12------
--3----6----3---10--------3----6----3----10------
-------------------------------------------------


Calavera calavera de folclor llena mi sangre
--------------------------------------------
--------------------------------------------
-5-------8-8------5----------8-8------------
-5---5---8-8--8---5--5-------8-8------8-----
-3---5---6-6--8---3--5-------6-6------8-----
-----3--------6------3----------------6-----


Calavera dulce espera el folclor esta en el aire
-------------------------------------------------
-------------------------------------------------
-5-------8-8-----------5----------8-8------------
-5---5---8-8---8-------5--5-------8-8------8-----
-3---5---6-6---8-------3--5-------6-6------8-----
-----3---------6----------3----------------6-----


Calavera calavera de folclor llena mi sangre
--------------------------------------------
--------------------------------------------
-5-------8-8------5----------8-8------------
-5---5---8-8--8---5--5-------8-8------8-----
-3---5---6-6--8---3--5-------6-6------8-----
-----3--------6------3----------------6-----


Calavera dulce espera el folclor esta en el aire!!!
-------------------------------------------------
-------------------------------------------------
-5-------8-8-----------5----------8-8------------
-5---5---8-8---8-------5--5-------8-8------8-----
-3---5---6-6---8-------3--5-------6-6------8-----
-----3---------6----------3----------------6-----


----------------------------------
----------------------------------
--5-5-5--------5--8---8-8--5------
--5-5-5-5-5-5--5--8---8-8--5-5----
--3-3-3-5-5-5--3--6---6-6--3-5----
--------3-3-3----------------3----

(ESTAS QUINTAS CON PALMUTE)
---------------------
---------------------
--5-5-5-5------------
--5-5-5-5--5-5-5-5---
--3-3-3-3--5-5-5-5---
-----------3-3-3-3---

(AQUI YA NO LLEVAN PALMUTE)
-------------------------------------------------
-------------------------------------------------
--5-----5--8---5-----5--8----------8-8-----------
--5--5--5--8---5--5--5--8----------8-8--8--10/0--
--3--5--3--6---3--5--3--6--8´------6-6--8--10/0--
-----3------------3---------------------6--8-/0--

Esto es todo espero les guste y porfavor calfiquen ps va un saludo
a la banda de skapaluka jeje y a todos los que aun les late el
ska-punk gracias

SALUD Y SKAAA!!!!!

            
            
Suggest correction
Creating personal tab
Creating personal tab
You can edit any tab online and save it as your Personal.

You can edit, replace or remove any tab part or add personal notes – all changes will be seen only by you.

Personal tabs can be accessed anytime from any device, even offline.
Learn more »
Give kudos to tab author, rate the tab!
1 2 3 4 5
comments
print report bad tab
guest
Wanna post a correction for this tab? Suggest correction