Oops, an error
Loading. Please wait.

Tricycles Of Steel bass

639 views 1 this week
no commentswrite comment
1 2 3 4 5
3 more votes to show rating
add to favorites
×
Save as Personal and add changes to this tab that will be seen only by you. Learn more ›
×
You can save this tab as Personal to edit and correct it or add notes. All changes will be seen only by you. Learn more »
launch autoscroll
font size
0
reset
guitar tuner
edit
Autoscroll
slow
fast
+/-
esc
set tempo
stop
Author
Artist: Nanowar / Nanowar of Steel (http://www.nanowar.it)
Song: Tricycles of Steel
Album: Other Bands Play, Nanowar Gay (2004)
Tabbed by: DeSnajpa_VI  

Made completely by hear, can occur mistakes, but generally should fit.
I don't know whether it should be played octave higher.

Bass Tab, dropped D (DADG)

Intro, after speaking part:

G|---------------------------------|
D|---------------------------------|  x2
A|---------------------------------|
D|-2-2-2-2-2-2-2-2-2-2-2-2-2-2-2-2-|

Guitar goes in:

G|---------------------------------|--------------------------------|
D|---------------------------------|--------------------------------|
A|---------------------------------|3-3-3-3-3-3-3-3-3-3-3-3-3-3-3-3-|
D|-2-2-2-2-2-2-2-2-2-2-2-2-2-2-2-2-|--------------------------------|

G|--------------------------------|------------------|
D|--------------------------------|------------------|
A|--------------------------------|2-----------------|
D|-7-7-7-7-7-7-7-7-7----5-----7---|------------------|

Before verse:

G|------------------|------------------|
D|------------------|------------------|
A|------------------|------------------|
D|------------------|------------------|

G|------------------------|------------------|
D|------------------------|------------------|
A|------------------------|------------------|
D|-2---------3----2----0--|2-----------------|

G|--------------------------------|---------------------------------|
D|--------------------------------|---------------------------------|    x2
A|--------------------------------|---------------------------------|
D|2-2-2-2-2-2-2-2-3-3-3-2-2-2-0-0-|-2-2-2-2-2-2-2-2-2-2-2-2-2-2-2-2-|

Verse 1:

G|---------------------------------|
D|---------------------------------|      x8
A|---------------------------------|
D|-2-2-2-2-2-2-2-2-2-2-2-2-2-2-2-2-|

Before chorus:

G|---------------------------------|---------------------------------|
D|---------------------------------|---------------------------------|
A|---------------------------------|-3-3-3-3-3-3-3-3-3-3-3-3-3-3-3-3-|
D|-2-2-2-2-2-2-2-2-2-2-2-2-2-2-2-2-|---------------------------------|

G|---------------------------------|-------------------------|
D|---------------------------------|-------------------------|
A|---------------------------------|2-2-2-2-2-2-2-2-2--------|
D|7-7-7-7-7-7-7-7-7-7-7-5-5-5-7-7--|-------------------------|

Chorus:

G|---------------------------------|--------------------------------|
D|---------------------------------|--------------------------------|
A|---------------------------------|--------------------------------|
D|-2-2-2-2-2-2-2-2-3-3-3-2-2-2-0-0-|2-2-2-2-2-2-2-2-2-2-2-2-2-2-2-2-|

G|---------------------------------|--------------------------------|
D|---------------------------------|--------------------------------|
A|---------------------------------|3-3-3-3-3-3-3-3-5-5-5-5-5-5-5-5-|
D|-2-2-2-2-2-2-2-2-3-3-3-2-2-2-0-0-|--------------------------------|

G|---------------------------------|--------------------------------|
D|---------------------------------|--------------------------------|
A|---------------------------------|3-3-3-3-3-3-3-3-5-5-5-5-5-5-5-5-|
D|-7-7-7-7-7-7-7-7-2-2-2-2-2-2-2-2-|--------------------------------|

G|---------------------------------|--------------------------------|
D|---------------------------------|--------------------------------|
A|---------------------------------|3-3-3-3-3-3-3-3-5-5-5-5-5-5-5-5-|
D|-2-2-2-2-2-2-2-2-2-2-2-2-2-2-2-2-|--------------------------------|

After chorus:

G|---------------------------------|--------------------------------|
D|---------------------------------|--------------------------------|
A|---------------------------------|--------------------------------|
D|-2-2-2-2-2-2-2-2-3-3-3-2-2-2-0-0-|2-2-2-2-2-2-2-2-2-2-2-2-2-2-2-2-|

G|---------------------------------|--------------------------------|
D|---------------------------------|--------------------------------|
A|---------------------------------|--------------------------------|
D|-2-2-2-2-2-2-2-2-3-3-3-2-2-2-0-0-|2-2-2-2-2-2-2-2-2-2-2-2-2-2-2-2-|

Verse 2:

G|---------------------------------|
D|---------------------------------|  x8
A|---------------------------------|
D|-2-2-2-2-2-2-2-2-2-2-2-2-2-2-2-2-|

Before chorus:

G|---------------------------------|--------------------------------|
D|---------------------------------|--------------------------------|
A|---------------------------------|3-3-3-3-3-3-3-3-3-3-3-3-3-3-3-3-|
D|-2-2-2-2-2-2-2-2-2-2-2-2-2-2-2-2-|--------------------------------|

G|---------------------------------|--------------------------|
D|---------------------------------|--------------------------|
A|---------------------------------|2-2-2-2-2-2-2-2-2---------|
D|-7-7-7-7-7-7-7-7-7-7-7-5-5-5-7-7-|--------------------------|

Chorus:

G|---------------------------------|--------------------------------|
D|---------------------------------|--------------------------------|
A|---------------------------------|--------------------------------|
D|-2-2-2-2-2-2-2-2-3-3-3-2-2-2-0-0-|2-2-2-2-2-2-2-2-2-2-2-2-2-2-2-2-|

G|---------------------------------|--------------------------------|
D|---------------------------------|--------------------------------|
A|---------------------------------|3-3-3-3-3-3-3-3-5-5-5-5-5-5-5-5-|
D|-2-2-2-2-2-2-2-2-3-3-3-2-2-2-0-0-|--------------------------------|

G|---------------------------------|--------------------------------|
D|---------------------------------|--------------------------------|
A|---------------------------------|3-3-3-3-3-3-3-3-5-5-5-5-5-5-5-5-|
D|-7-7-7-7-7-7-7-7-2-2-2-2-2-2-2-2-|--------------------------------|

G|---------------------------------|--------------------------------|
D|---------------------------------|--------------------------------|
A|---------------------------------|3-3-3-3-3-3-3-3-5-5-5-5-5-5-5-5-|
D|-2-2-2-2-2-2-2-2-2-2-2-2-2-2-2-2-|--------------------------------|

Before solo, drums playing fast:

G|--------------------------------|-----------------|
D|--------------------------------|-----------------|
A|--------------------------------|-----------------|   here short break
D|2-2-2-2-2-2-2-2-2-2-2-2-2-2-2-2-|2----------------|

Solo: 

G|---------------------------------|
D|---------------------------------|  x4
A|---------------------------------|
D|-4-4-4-4-4-4-4-4-4-4-4-4-4-4-4-4-|

G|---------------------------------|
D|---------------------------------| x4
A|---------------------------------|
D|-2-2-2-2-2-2-2-2-2-2-2-2-2-2-2-2-|

Before chorus:

G|---------------------------------|--------------------------------|
D|---------------------------------|--------------------------------|
A|---------------------------------|3-3-3-3-3-3-3-3-3-3-3-3-3-3-3-3-|
D|-2-2-2-2-2-2-2-2-2-2-2-2-2-2-2-2-|--------------------------------|

G|---------------------------------|--------------------------|
D|---------------------------------|--------------------------|
A|---------------------------------|2-2-2-2-2-2-2-2-2---------|
D|-7-7-7-7-7-7-7-7-7-7-7-5-5-5-7-7-|--------------------------|

Chorus: x2

G|---------------------------------|--------------------------------|
D|---------------------------------|--------------------------------|
A|---------------------------------|--------------------------------|
D|-2-2-2-2-2-2-2-2-3-3-3-2-2-2-0-0-|2-2-2-2-2-2-2-2-2-2-2-2-2-2-2-2-|

G|---------------------------------|--------------------------------|
D|---------------------------------|--------------------------------|
A|---------------------------------|3-3-3-3-3-3-3-3-5-5-5-5-5-5-5-5-|
D|-2-2-2-2-2-2-2-2-3-3-3-2-2-2-0-0-|--------------------------------|

G|---------------------------------|--------------------------------|
D|---------------------------------|--------------------------------|
A|---------------------------------|3-3-3-3-3-3-3-3-5-5-5-5-5-5-5-5-|
D|-7-7-7-7-7-7-7-7-2-2-2-2-2-2-2-2-|--------------------------------|

G|---------------------------------|--------------------------------|
D|---------------------------------|--------------------------------|
A|---------------------------------|3-3-3-3-3-3-3-3-5-5-5-5-5-5-5-5-|
D|-2-2-2-2-2-2-2-2-2-2-2-2-2-2-2-2-|--------------------------------|

Outro:

G|---------------------------------|
D|---------------------------------| x4
A|---------------------------------|
D|-2-2-2-2-2-2-2-2-2-2-2-2-2-2-0---|

G|--|
D|--|
A|--|
D|2-|

            
            
Suggest correction
Creating personal tab
Creating personal tab
You can edit any tab online and save it as your Personal.

You can edit, replace or remove any tab part or add personal notes – all changes will be seen only by you.

Personal tabs can be accessed anytime from any device, even offline.
Learn more »
Give kudos to tab author, rate the tab!
1 2 3 4 5
comments
print report bad tab
guest
You may want to rate the tab now too:
select rating
Wanna post a correction for this tab? Suggest correction