Oops, an error
Loading. Please wait.

Siege Of Power tab

version 1
version 1

Whole song

Interactive

3,658 views 1 this week
no commentswrite comment
1 2 3 4 5
x 4
add to favorites
×
Save as Personal and add changes to this tab that will be seen only by you. Learn more ›
×
You can save this tab as Personal to edit and correct it or add notes. All changes will be seen only by you. Learn more »
launch autoscroll
font size
0
reset
how to read this tab
guitar tuner
edit
Autoscroll
slow
fast
+/-
esc
set tempo
stop
Author
Band: Napalm Death
Song: Siege of Power
Album: Scum
Year: 1987

1st riff:
D#|------------------------|
A#|------------------------|
F#|------------------------| play 16
C#|------------------------| times
G#|-2222222222-3-22-5-22-6-|
D#|-0000000000-1-00-3-00-4-|

2nd riff:
D#|------------|
A#|------------|
F#|------------| play 8
C#|----------3-| times
G#|-2-5-6-22-1-|
D#|-0-3-4-00---|

Repeat the first 2 riffs, only then play the first riff 8 times instead of 16 times.

3th riff:
D#|----------------------|
A#|----------------------|
F#|----------------------| play 12
C#|----------------------| times
G#|-2222-3-22-3-22-3-2-3-|
D#|-0000-1-00-1-00-1-0-1-|

After the 3th riff play some random powerchords, pinches and hammer-on's.

4th riff:
D#|---------------------------------------------------------------------|
A#|---------------------------------------------------------------------|
F#|---------------------------------------------------------------------|
C#|---------------------------------------------------------------------|
G#|-11-11-11-11-12-12-11-11-11-11-9-9-11-11-11-11-12-12-11-11-11-11-7-9-|
D#|-9--9--9--9--10-10-9--9--9--9--7-7-9--9--9--9--10-10-9--9--9--9--5-7-|

5th riff:
D#|----------------------------------------------------------------------|
A#|----------------------------------------------------------------------|
F#|----------------------------------------------------------------------|
C#|----------------------------------------------------------------------|
G#|-1010101010109-9-1010101010109-9-1010101010109-9-10101010-11-11-11-11-|
D#|-9-9-9-9-9-9-7-7-9-9-9-9-9-9-7-7-9-9-9-9-9-9-7-7-9-9-9-9--10-10-10-10-|

------------------------------------------------------------------|
------------------------------------------------------------------|
------------------------------------------------------------------| play 4
------------------------------------------------------------------| times
-1010101010109-9-1010101010109-9-1010101010109-9-10101010-7-7-9-9-|
-9-9-9-9-9-9-7-7-9-9-9-9-9-9-7-7-9-9-9-9-9-9-7-7-9-9-9-9--5-5-7-7-|

6th riff:
D#|------------|
A#|------------|
F#|------------| play 4
C#|------------| times
G#|-77-99-8888-|
D#|-55-77-6666-|

Play riff 5 again 4 times.

Play riff 6 again 4 times.

Play riff 4 again 1 time.

After the second time playing riff 4 play this:
D#|----|
A#|----|
F#|----| (Kinda unnecessary to play but I want these tabs clear as possible)
C#|----|
G#|-99-|
D#|-77-|

Repeat the first 2 riffs, only then play the first riff 8 times instead of 16 times.

Play riff 3 again 4 times.

Sorry, but the solo is really hard to indentify for me, because it is 2 guitar solos 
each other.

Play riff 3 again 4 times.

END

            
            
Suggest correction
Creating personal tab
Creating personal tab
You can edit any tab online and save it as your Personal.

You can edit, replace or remove any tab part or add personal notes – all changes will be seen only by you.

Personal tabs can be accessed anytime from any device, even offline.
Learn more »
comments
print report bad tab
guest
You may want to rate the tab now too:
select rating
Wanna post a correction for this tab? Suggest correction