Oops, an error
Loading. Please wait.

Son Ellos bass

by Narco
146 views 1 this week
no commentswrite comment
1 2 3 4 5
3 more votes to show rating
add to favorites
×
Save as Personal and add changes to this tab that will be seen only by you. Learn more ›
×
You can save this tab as Personal to edit and correct it or add notes. All changes will be seen only by you. Learn more »
launch autoscroll
font size
0
reset
guitar tuner
edit
Autoscroll
slow
fast
+/-
esc
set tempo
stop
segundo tema que envio de los narco, espero que lo disfruteis...

INTRO Y VERSO 1

G|-----------|
D|-----------|
A|--------5--|
E|-0----7---7|

VERSO 2

G|-----------|
D|-----------|
A|-7^--------|
E|-----000000|

PRE-ESTRIBILLO

PRIMERO
G|-----------------------------|
D|-----------------------------|
A|-7--8--7--9--7-8-9-10-7-8-9--|
E|-----------------------------|

SEGUNDO
G|------------------------------|
D|------------------------------|
A|-7--8--7--9--7-8-9-10-7-8-9-10|
E|------------------------------|

ESTRIBILLO


PRIMERO
G|-----------|
D|-----------|
A|--------5--|
E|-0----7---7|

SEGUNDO
G|-----------|
D|-----------|
A|-7^--------|
E|-----000000|


CODA

G|----------------|
D|----------------|
A|----------------|
E|-0000-3-6-3-0000|

(Y DESDE DENTRO LOS CABRONES HAN SIDO ELLOS)

G|----------------------|
D|----------------------|
A|----------------------|
E|-000-000-000-0-3-6-3-0|

(GRITO FINAL DEL VIKINGO)

G|----------------------------------|-------|
D|----------------------------------|-------|
A|----------------------------------|-------|
E|-000000000000000000000000000-3-6-3|-0^----|


ESTRUCTURA

-intro x4
-verso 1 x8
-verso 2 x8
-pre-estribillo primero
-estribillo primero x8
-estribillo segundo x4
-intro x4(es de vital importancia...)
-verso 1 x8
-verso 2 x8
-pre-estribillo segundo
-estribillo primero x14
-coda

            
            
Suggest correction
Creating personal tab
Creating personal tab
You can edit any tab online and save it as your Personal.

You can edit, replace or remove any tab part or add personal notes – all changes will be seen only by you.

Personal tabs can be accessed anytime from any device, even offline.
Learn more »
Give kudos to tab author, rate the tab!
1 2 3 4 5
comments
print report bad tab
guest
Wanna post a correction for this tab? Suggest correction