Oops, an error
Loading. Please wait.

Hip Hop Is Dead bass

version 1
version 1

Whole song

by Nas
5,694 views 1 this week
1 commentread comment
1 2 3 4 5
2 more votes to show rating
add to favorites
×
Save as Personal and add changes to this tab that will be seen only by you. Learn more ›
×
You can save this tab as Personal to edit and correct it or add notes. All changes will be seen only by you. Learn more »
launch autoscroll
font size
0
reset
guitar tuner
edit
Autoscroll
slow
fast
+/-
esc
set tempo
stop
Author
I was looking for the bass tab for this song but the one on this site is
shite. so heres my version of it which i think sounds correct. enjoy :D

Normal Tuning

|-----------------------|----------------------|
|-------3-2-------7-6-5-|-------3-2------7-6-5-|
|-5--5-------3-5--------|-3--5-------3-5-------|
|-----------------------|----------------------|
repeat this till the end

this is just something i like to add into it

|---x-7-x-5---------|---x-7-x-5---------|
|-----------x-5-6-7-|-------------------|
|-5-----------------|-5-----------------|
|-------------------|-----------x-5-6-7-|

            
            
Suggest correction
Creating personal tab
Creating personal tab
You can edit any tab online and save it as your Personal.

You can edit, replace or remove any tab part or add personal notes – all changes will be seen only by you.

Personal tabs can be accessed anytime from any device, even offline.
Learn more »
Give kudos to tab author, rate the tab!
1 2 3 4 5
comments
print report bad tab
1 comment total.
0 reply
robloxkrazy621 33 Feb 22, 2015 12:30 PM

This sounds amazing! Perhaps on the second part to repeat you can add a 3 on the D string and switch the 3 on the A:
|-----------------------|-----------------------|
|-------3-2-------7-6-5-|-3-----3-2------7-6-5--|
|-5--5-------3-5--------|----5-------3-5-------3|
|-----------------------|-----------------------|

guest
You may want to rate the tab now too:
select rating
Wanna post a correction for this tab? Suggest correction