Oops, an error
Loading. Please wait.

Love You Home Acoustic chords

352 views 6 this week
no commentswrite comment
1 2 3 4 5
3 more votes to show rating
add to favorites
×
Save as Personal and add changes to this tab that will be seen only by you. Learn more ›
×
You can save this tab as Personal to edit and correct it or add notes. All changes will be seen only by you. Learn more »
launch autoscroll
font size
0
reset
transpose
0
reset
simplify chords
display chords
guitar tuner
edit
Autoscroll
slow
fast
+/-
esc
set tempo
stop
About this tab version
Capo 4th makes for more acurate chords plus some tab inserted into the body of the song. Was this info helpful? Yes No
Strumming
There is no strumming pattern for this song yet. and get +5 IQ
From the show Nashville : https://www.youtube.com/watch?v=tMdKLd3OrtM&list=RDtMdKLd3OrtM#t=7

[Intro]

    Em    D      G            C              Cmaj7
e|--------------------3-----------------------------------------|
B|----------------------0----------1----------------0-----------|
G|-0---0--2---2--0-----------0----------0-----0-----------0-----| X 2
D|---2------0------0------0-----2----2-----2-----2-----2-----2--| 
A|---------------------------3----------------3-----------------|
E|-0------2------3----------------------------------------------|


[Verse 1]
           G                 C     Cmaj7    D
When you’re happy, cause you can’t be    sad
              G                 C     Cmaj7    D
When you’re tied up, cause you can’t hold back
            Em              C     Cmaj7     D
You can’t move on, cause of what   you   had
           Em  D   G      C     Cmaj7   
You don’t have to be that way

[Chorus]
C                            G  Gadd11  G
Everybody tells you where to go
C                               G  
Everybody loves you till they don’t
    D                              C      Cadd9  C
Just come with me and you won’t be alone
C   Em   D        G
Let me  love you home

   Em    D      G            C              Cmaj7
e|--------------------3-----------------------------------------|
B|----------------------0----------1----------------0-----------|
G|-0---0--2---2--0-----------0----------0-----0-----------0-----| 
D|---2------0------0------0-----2----2-----2-----2-----2-----2--| 
A|---------------------------3----------------3-----------------|
E|-0------2------3----------------------------------------------|


[Verse 2]

               G                 C     Cmaj7     D
Oh, When you’re tired, cause you sleep too    much
              G             C  Cmaj7    D
When you set off, but you call it      love
            Em                  C     Cmaj7     D
You’re so tuned in, that you’re out    of     touch
           Em  D      G      C     Cmaj7   
When you’re fallin    in a rut


[Chorus]
C                            G  Gadd11  G
Everybody tells you where to go
C                               G  
Everybody loves you till they don’t
    D                              C      Cadd9  C
Just come with me and you won’t be alone
C   Em   D        G
Let me   love you home

[Bridge]

Em   D     G                     G  D
              ooooooOOOOOOOOOOOooooo
Em   D     G


[Verse 3]
               G          C     Cmaj7     D
When you’re prayin, as a last     resort
             G                 C     Cmaj7     D
You keep lookin, but you don’t know  what    for
            Em              C   Cmaj7     D
All you’re wanting, is for something    sure
    Em    D      G      C     Cmaj7  
For some-thing   to be yours


[Chorus]
C                            G  Gadd11  G
Everybody tells you where to go
C                               G  
Everybody loves you till they don’t
    D                              C      Cadd9  C
Just come with me and you won’t be alone
C   Em   D        G
Let me   love you home


[Outro]
    D                              C      Cadd9  C
Just come with me and you won’t be alone
C   Em   D        G
Let me   love you home

   Em    D      G            C              Cmaj7
e|--------------------3-----------------------------------------|
B|----------------------0----------1----------------0-----------|
G|-0---0--2---2--0-----------0----------0-----0-----------0-----| 
D|---2------0------0------0-----2----2-----2-----2-----2-----2--| 
A|---------------------------3----------------3-----------------|
E|-0------2------3----------------------------------------------|

   Em    D      G            C              
e|--------------------3-------------------|
B|----------------------0----------1------|
G|-0---0--2---2--0-----------0------------| 
D|---2------0------0------0-----2---------| 
A|---------------------------3------------|
E|-0------2------3------------------------|

            
            
Suggest correction
Creating personal tab
Creating personal tab
You can edit any tab online and save it as your Personal.

You can edit, replace or remove any tab part or add personal notes – all changes will be seen only by you.

Personal tabs can be accessed anytime from any device, even offline.
Learn more »
Give kudos to tab author, rate the tab!
1 2 3 4 5
comments
print report bad tab
guest
You may want to rate the tab now too:
select rating
Wanna post a correction for this tab? Suggest correction