Oops, an error
Loading. Please wait.

Noche Divina bass

61 views 1 this week
no commentswrite comment
1 2 3 4 5
3 more votes to show rating
add to favorites
×
Save as Personal and add changes to this tab that will be seen only by you. Learn more ›
×
You can save this tab as Personal to edit and correct it or add notes. All changes will be seen only by you. Learn more »
launch autoscroll
font size
0
reset
guitar tuner
edit
Autoscroll
slow
fast
+/-
esc
set tempo
stop
Bueno esta es mi primera tablatura que saco yo solo de
oido. Es una canción sencilla, la cual consta 
basicamente de tres patrones o riffs. obviamente el 
bajista de natalia hace variaciones a estos riffs que 
se notan facilmente pero que por mi inexperiencia no 
he sacado pero pueden improvisar. ok pues empecemos!!!

intro
en el 00:16 entra el riff 1

riff 1
G ------------------------|--------
D -------4/6-4------------|--------
A -----4-------4---4-5-6--|--------
E ---2-----------4--------|--------

Despues en el 01:52 entra riff 2

riff 2

G -----------------------|--------
D --------4-----44-------|--------
A ------4----------4-----|--------
E ---22--------------4---|--------

Luego en el 02:08 )mas o menos solo chequen el ritmo) 

G --------------|--------
D --------------|--------
A -----3-----3--|--------
E ---0----0-----|--------

despues un silencio en  02:24

y en 02:32 otra vez riff 1

ya para terminar sigue en 02:56 el riff 3

riff 3

G ------------------------|--------
D -------6/8-6------------|--------
A -----6-------6---6-7-8--|--------
E ---4-----------6--------|--------

y pues eso es basicamente todo. obviamente tiene 
variaciones como repito, pero solo es cuestion 
de agarrarle el ritmo ya.

            
            
Suggest correction
Creating personal tab
Creating personal tab
You can edit any tab online and save it as your Personal.

You can edit, replace or remove any tab part or add personal notes – all changes will be seen only by you.

Personal tabs can be accessed anytime from any device, even offline.
Learn more »
Give kudos to tab author, rate the tab!
1 2 3 4 5
comments
print report bad tab
guest
Wanna post a correction for this tab? Suggest correction