Oops, an error
Loading. Please wait.

Que He Sacado Con Quererte chords

586 views 18 this week
1 commentread comment
1 2 3 4 5
3 more votes to show rating
add to favorites
×
Save as Personal and add changes to this tab that will be seen only by you. Learn more ›
×
You can save this tab as Personal to edit and correct it or add notes. All changes will be seen only by you. Learn more »
launch autoscroll
font size
0
reset
transpose
0
reset
simplify chords
display chords
guitar tuner
edit
Autoscroll
slow
fast
+/-
esc
set tempo
stop
About this tab version
First tabbed, this song is pretty hard to tab so, i wrote the exact arpegios you will be use to sound like the original, check demo cover to check the result, if some chords are bad named , tell me I can change but i tried to do my best, in some parts the lyrics continues as the chord changes, dont think is a mistake. Was this info helpful? Yes No
Strumming
There is no strumming pattern for this song yet. and get +5 IQ
Rola sacada por Edgar Chez 08/04/2017
Demo Cover: https://www.youtube.com/watch?v=K1I7pncGpK4
Tutorial: https://www.youtube.com/watch?v=6UMNis6quSo

Checa los videos y si te gusta suscribete! busca "Edgar Chez" en
youtube para tener los ultimos estrenos cada semana!!

FIRST OF ALL WATCH DEMO COVER OR TUTORIAL,this song is very 
hard to tab exactly, that´s why im going to write the exact 
arpegios you must play to sound like the original song when
you see the chord, play arpegio and
repeat arpegio and repeat arpegio until chord changes

TRANSLATION:
ANTES QUE NADA MIRA EL VIDEO DEMO OR TUTORIAL,esta canción es 
muy dificil para tabearla con extrema precisión, es por eso 
que voy a escribir el arpegio exacto que debes tocar para 
sonar como la canción original,cuando veas el acorde,repite 
una y otra vez el arpegio,hasta que veas que el acorde 
cambia,entonces tocas el arpegio correspondiente

Standard Tunning EADGBe Capo 2nd Fret

Afinación Estandar EADGBe Capo en el segundo traste

          D7                  C/G                  Am6
e|-----2-------2-----|-----0-------0-----|-----2-------2------|
B|---1---1---1---1---|---1---1---1---1---|---1---1---1---1----|
G|-2-------2-------2-|-0-------0-------0-|-2-------2-------2--|
D|-------------------|-------------------|-2-------2-------2--|
A|-------------------|-------------------|--------------------|
E|-------------------|-------------------|--------------------|

          Am7               D7sus2                  C/E
e|-----0-------0-----|-----0-------0-----|--------------------|
B|---1---1---1---1---|---1---1---1---1---|-----1-------1------|
G|-0-------0-------0-|-2-------2-------2-|---0---0---0---0----|
D|-2-------2-------2-|-------------------|-2-------2-------2--|
A|-------------------|-------------------|--------------------|
E|-------------------|-------------------|--------------------|

          Dsus2               E7sus/D            
e|-----5-------5-----|-----7-------7-----|
B|---5---5---5---5---|---5---5---5---5---|
G|-2-------2-------2-|-4-------4-------4-|
D|-------------------|-------------------|
A|-------------------|-------------------|
E|-------------------|-------------------|

[Intro]
D7

[Verse 1]
D7
¿Qué he sacado con la luna ayayayy
                     C/G
Que los dos miramos juntos? ayayayy
 C/G
¿Qué he sacado con los nombres ayayayy
     D7
Estampados en el muro? ayayayy
D7
Como cambia el calendario, ayayayy
D7
Cambia todo en este mundo. ayayayy
        C/G      D7
¡y, ay, ay!       ¡Ay! 
 
G 
***************************************************

| *  Only G Chord strum once/solo 1 rasgueo para G

***************************************************

[Verse 2]
Am6
¿Qué he sacado con el lirio 
                     Am7
Que plantamos en el patio? 
 Am7
No era uno el que plantaba;
     Am6 
Eran dos enamorado’. 
    Am6 
Hortelano, tu plantío
    Am6  
Con el tiempo no ha cambiado. 
          Am7  Am6  
¡Ay, ay, ay!       ¡Ay! ¡Ay!

G 
***************************************************

| *  Only G Chord strum once/solo 1 rasgueo para G

***************************************************

[Verse 3]
D7sus2
¿Qué he sacado con la sombra 
               C/E
Del aromo por testigo, 
C/E
Y los cuatro pies marcados 
                 D7sus2 
En la orilla del camino?
 D7sus2 
¿Qué he sacado con quererte, 
 D7sus2 
Clavelito florecido?
 D7sus2 
¡Ay, ay,
 
[Bridge]
   Ay!,...........¡Ay!...........¡Ay!

B|-5-5-5-8---5-|-5-5-5-8---5-|-5-5-5-8-------8-5-----------|
G|-------------|-------------|-------------------7-5-4-0-2-|
D|-------------|-------------|-----------------------------|
A|-------------|-------------|-----------------------------|
E|-------------|-------------|-----------------------------|

e|------------|-------------|---------0-----0---------|
B|-----0-1-3--|-----0-1-3---|---0-1-3---3-1---3-1-3-1-|
G|-2-2-------2|-2-2-------2-|-2-----------------------|
D|------------|-------------|-------------------------|
A|------------|-------------|-------------------------|
E|------------|-------------|-------------------------|

e|---------5---|---------5---|---------5-8-5---------------|
B|-5-5-5-8---5-|-5-5-5-8---5-|-5-5-5-8-------8-5-----------|
G|-------------|-------------|-------------------7-5-4-0-2-|
D|-------------|-------------|-----------------------------|
A|-------------|-------------|-----------------------------|
E|-------------|-------------|-----------------------------|

[Bridge Ending]
D7
 
[Verse 4]
D7
Aquí está la misma luna, 
                 D7sus2
Y en el patio el blanco lirio,
D7sus2 
Los dos nombres en el muro,
                  D7 
Y tu rastro en el camino.

[Outro] 
Pero tú, palomo ingrato, 
                      Dsus2
Ya no arrullas en mi nido. 
      E7sus/D          D7
¡Ay, ay, ay! ¡Ay! ¡Ay!}

e|--12--|
B|------|
G|------|
D|------|
A|------|
E|------|

            
            
Suggest correction
Creating personal tab
Creating personal tab
You can edit any tab online and save it as your Personal.

You can edit, replace or remove any tab part or add personal notes – all changes will be seen only by you.

Personal tabs can be accessed anytime from any device, even offline.
Learn more »
Give kudos to tab author, rate the tab!
1 2 3 4 5
comments
print report bad tab
1 comment total.
0 reply
yazminmk710 10 Apr 18, 2017 05:15 PM

👍

guest
You may want to rate the tab now too:
select rating
Wanna post a correction for this tab? Suggest correction