Oops, an error
Loading. Please wait.

Thinking About It chords

version 2
version 2

Whole song

  • Sounds just like the original song, played like th... Show more
1,774 views 75 this week
1 commentread comment
1 2 3 4 5
1 last vote to show rating
add to favorites
×
Save as Personal and add changes to this tab that will be seen only by you. Learn more ›
×
You can save this tab as Personal to edit and correct it or add notes. All changes will be seen only by you. Learn more »
launch autoscroll
font size
0
reset
transpose
0
reset
simplify chords
display chords
guitar tuner
edit
Autoscroll
slow
fast
+/-
esc
set tempo
stop
About this tab version
Sounds just like the original song, played like the original video from the song. Intro included. Was this info helpful? Yes No
Strumming
There is no strumming pattern for this song yet. and get +5 IQ
Everything relative to capo.

[Intro]

e|-----0---x---------------------------------x-------------------------------|
B|-----1---x----------------3---1----------3-x------0---0-0------------------|
G|---0-----x---0----2-----2---2----------2-2-x------0----2-0-----------------|
D|---------x--------3-------------------0----x--0---0------------------------|
A|-0-------x--------3------------------------x-------------------------------|
E|---------x---------------------------------x------3------------------------|
                                                                                     Repeat this twice
e|-----0---x---------------------------------x-------------------------------|
B|-----1---x----------------3---1----------3-x------0------------------------|
G|---0-----x---0----2-----2---2----------2-2-x------0------------------------|
D|---------x--------3-------------------0----x--0---0------------------------|
A|-0-------x--------3------------------------x-------------------------------|
E|---------x---------------------------------x------3------------------------|


You can use this for the whole song or play the following chords:

    Am7            Fmaj7            Dsus2              G6              E7

e|---0---|      e|---0---|       e|---0---|       e|---0---|      e|---0---|             
B|---1---|      B|---1---|       B|---3---|       B|---0---|      B|---0---|        
G|---0---|      G|---2---|       G|---2---|       G|---0---|      G|---1---| 
D|---2---|      D|---3---|       D|---0---|       D|---0---|      D|---0---| 
A|---0---|      A|---3---|       A|---x---|       A|---2---|      A|---2---| 
E|---x---|      E|---1---|       E|---x---|       E|---3---|      E|---0---|
                     
                     ↪ For me, its easier to do that "1" note in the E string by pressing it with the thumb :)
[Verse 1]

Am7         Fmaj7                  Dsus2
       What did you do this for?
G6 
Settle down for a little bit
Am7               Fmaj7                  Dsus2       G6
You look like any other fool i know


|Verse 2|
        
Am7         Fmaj7                          Dsus2
         Why would you say it like that?
G6                                  Am7
Don't you know dreams really come true
              Fmaj7                        Dsus2  G6
When you give away your heart like that?


[Pre-chorus]

             D           E7 (single strum)
So in the meantime


[Chorus]
               Am7       Fmaj7
I'm thinking about it

Let it go, let it go
Dsus2                 G6
It will all fix itself
              Am7       Fmaj7
From thinking about it
                   Dsus2  G6
Let it go, let it go

               Am7       Fmaj7
I'm thinking about it

Let it go, let it go
Dsus2                 G6
It will all fix itself
              Dsus2
From thinking about it
               E7
I'm thinking about it 


[Outro] 


Am7 Fmaj7 Dsus2 G6
Ooooh oooh oooh 
Am7 Fmaj7 Dsus2 G6
Ooooh oooh oooh

[Interlude]

e|-----0---x---------------------------------x-------------------------------|
B|-----1---x----------------3---1----------3-x------0---0-0------------------|
G|---0-----x---0----2-----2---2----------2-2-x------0----2-0-----------------|
D|---------x--------3-------------------0----x--0---0------------------------|
A|-2-------x--------3------------------------x-------------------------------|
E|---------x---------------------------------x------3------------------------|
                                                                                     Repeat this twice
e|-----0---x---------------------------------x-------------------------------|
B|-----1---x----------------3---1----------3-x------0------------------------|
G|---0-----x---0----2-----2---2----------2-2-x------0------------------------|
D|---------x--------3-------------------0----x--0---0------------------------|
A|-2-------x--------3------------------------x-------------------------------|
E|---------x---------------------------------x------3------------------------|


[Verse 3]

Am7     Fmaj7                 Dsus2
      I know you work so hard
      G6                               Am7    Fmaj7   Dsus2 G6
And you can't wait to get out of this basement
Am7        Fma7                     Dsus2
     But if I'll take you this far
   G6               Am7         Fmaj7  Dsus2 G6
You kill me just to find a replacement

[Pre-chorus]

             D           E7 (single strum)
So in the meantime

[Chorus]

               Am7       Fmaj7
I'm thinking about it

Let it go, let it go
Dsus2                 G6
It will all fix itself
              Am7       Fmaj7
From thinking about it
                   Dsus2  G6
Let it go, let it go

               Am7       Fmaj7
I'm thinking about it

Let it go, let it go
Dsus2                 G6
It will all fix itself
              Dsus2     
From thinking about it
               E7
I'm thinking about it 

[Bridge]

Am7    G6                                   Fmaj7
     There's a really good thing right in front of my eyes
Am7    G6                 Fmaj7
               Right in front of my eyes
Am7    G6                                   Fmaj7
     There's a really good thing right in front of my eyes
               Dsus2                  E7
     Right in front of my eyes

[Outro] 

Am7 Fmaj7 Dsus2 G6
Ooooh oooh oooh 
Am7 Fmaj7 Dsus2 G6
Ooooh oooh oooh

[Chorus]

               Am7       Fmaj7
I'm thinking about it

Let it go, let it go
Dsus2                 G6
It will all fix itself
              Am7       Fmaj7
From thinking about it
                   Dsus2  G6
Let it go, let it go

               Am7       Fmaj7
I'm thinking about it

Let it go, let it go
Dsus2                 G6
It will all fix itself
              Dsus2     
From thinking about it
               E7
I'm thinking about it



************************************

| x  Dead note

************************************

            
            
Suggest correction
Creating personal tab
Creating personal tab
You can edit any tab online and save it as your Personal.

You can edit, replace or remove any tab part or add personal notes – all changes will be seen only by you.

Personal tabs can be accessed anytime from any device, even offline.
Learn more »
Give kudos to tab author, rate the tab!
1 2 3 4 5
comments
print report bad tab
1 comment total.
0 reply
Silvestro92 10 Jan 02, 2017 10:27 AM

WELL DONE!!BRO

guest
You may want to rate the tab now too:
select rating
Wanna post a correction for this tab? Suggest correction