Oops, an error
Loading. Please wait.

Tabi No Tochuu ukulele

version 1
version 1

Whole song

Interactive

457 views 1 this week
no commentswrite comment
1 2 3 4 5
3 more votes to show rating
add to favorites
×
Save as Personal and add changes to this tab that will be seen only by you. Learn more ›
×
You can save this tab as Personal to edit and correct it or add notes. All changes will be seen only by you. Learn more »
launch autoscroll
font size
0
reset
transpose
0
reset
display chords
guitar tuner
edit
Autoscroll
slow
fast
+/-
esc
set tempo
stop
Difficulty
intermediate
Strumming
There is no strumming pattern for this song yet. and get +5 IQ
-------------------------------------------------------------------------------
                             TABI NO TOCHUU - Spice & Wolf OP
-------------------------------------------------------------------------------
Tabbed by: Ch3äZy
Email: contact@ch3azy.com

Check out these two versions of the songs:

http://www.youtube.com/watch?v=6jqfnpvCHWA
http://www.youtube.com/watch?v=HKItqZKbZYY

This is what I based this tab off of. Enjoy.

Tuning: Standard

Intro/Verse1
Verse 2
Verse 2
Verse 3
Chorus
Intro/Verse 1
Verse 2
Verse 3
Bridge
Bridge
Bridge2
Chorus
Chorus
Chorus
Chorus
Intro/Verse 1

[Intro/Verse1]
e|------------------------------------------------------------------|
B|------6--------------9-7---9-7--------6--------------9-7---9-7----|
G|-6h8----6-------6-8------6-------6h8----6-------6-8------6--------|
D|----------6--9-----------------------------6--9-------------------|
A|------------------------------------------------------------------|
E|------------------------------------------------------------------|

e|----------------------------------------|
B|-----6-------------9-7------5-7---------|
G|-6h8---6-------6-8-----6-8------6b~~~~~-|
D|---------6--9---------------------------|
A|----------------------------------------|
E|----------------------------------------|

[Verse2]
e|----------------------------------------------|
B|--------6h7-6--------5h7-5~~~---5-5-5---------|
G|-6--8----------6--8-------------------8-------|
D|-----------------------------------------9--6-|
A|----------------------------------------------|
E|----------------------------------------------|

e|----------------------------------------------|
B|--------6h7-6--------5h7-5~~~---5-5-5---------|
G|-6--8----------6--8-------------------8-----9-|
D|-----------------------------------------9----|
A|----------------------------------------------|
E|----------------------------------------------|

[Verse3]
e|--------------------------------------------------------|
B|--9-9-9-9-7---------------5h7b-5-----------------5-7----|
G|-------------9-8-8-6h8b----------8-6-8------------------|
D|----------------------------------------9p6-------------|
A|--------------------------------------------------------|
E|--------------------------------------------------------|

e|----------------------------------------------5-4--4h5-4----------------------------|
B|--9-9-9h10-9--7---------------5-5h7b-5-------------------7---5p4b--4~~~~~~~~~~~~----|
G|-----------------9-8b-8-6h8------------8-6-8----------------------------------------|
D|------------------------------------------------------------------------------------|
A|------------------------------------------------------------------------------------|
E|------------------------------------------------------------------------------------|

[Chorus]
e|---------------------------------------------------------------------9\7--------5\4-|
B|---------------------------------------------------------------9-10-------5-7-------|
G|--5--6--6/8\6---5--6--6/8\6---6--9--9/13\11---6--9--9/13\11-------------------------|
D|------------------------------------------------------------------------------------|
A|------------------------------------------------------------------------------------|
E|------------------------------------------------------------------------------------|

e|----------9-7-----------|
B|-7-9-10-9-----9---------|
G|------------------------|
D|------------------------|
A|------------------------|
E|------------------------|

[Bridge]
e|---------------------------------------------------------------------------|
B|-----------5-7---------5-7----5/9--5/7----9-9b~~~/-------------------------|
G|--6-6-6-8------6-6-6-8-----------------------------------------------------|
D|---------------------------------------------------------------------------|
A|---------------------------------------------------------------------------|
E|---------------------------------------------------------------------------|

[Bridge2]
e|---------------------------------------------------------------------------|
B|-----------5-7---------5-7----9b-7-----------------------------------------|
G|--6-6-6-8------6-6-6-8--------------9-8-6----------------------------------|
D|------------------------------------------9-7------------------------------|
A|----------------------------------------------11--9-7-6h7-9----------------|
E|------------------------------------------------------------9-7-5-4b~~~~---|

e|--/9-9-8h9-11h13-11-9-8-4-6~~~--|
B|--------------------------------|
G|--------------------------------|
D|--------------------------------|
A|--------------------------------|
E|--------------------------------|

************************************

| /   slide up
| \   slide down
| h   hammer-on
| p   pull-off
| ~   vibrato

************************************

            
            
Suggest correction
Creating personal tab
Creating personal tab
You can edit any tab online and save it as your Personal.

You can edit, replace or remove any tab part or add personal notes – all changes will be seen only by you.

Personal tabs can be accessed anytime from any device, even offline.
Learn more »
Give kudos to tab author, rate the tab!
1 2 3 4 5
comments
print report bad tab
guest
Wanna post a correction for this tab? Suggest correction