Oops, an error
Loading. Please wait.

Uspavanka chords

22 views 3 this week
no commentswrite comment
1 2 3 4 5
3 more votes to show rating
add to favorites
×
Save as Personal and add changes to this tab that will be seen only by you. Learn more ›
×
You can save this tab as Personal to edit and correct it or add notes. All changes will be seen only by you. Learn more »
launch autoscroll
font size
0
reset
transpose
0
reset
simplify chords
display chords
guitar tuner
edit
Autoscroll
slow
fast
+/-
esc
set tempo
stop
Strumming
There is no strumming pattern for this song yet. and get +5 IQ
[Intro]
Bm
   let ring                           let ring
e|-----10--9-7----------|---10--9-7-------------|
B|-------------10-8---7-|-----------10-8-10---7-|
G|------------------9---|-------------------9---|
D|----------------------|-----------------------|
A|-9--------------------|-9---------------------|
E|----------------------|-----------------------|
                          
[Verse]
Bm                  Bm              D
Muce bele  muce črne muce zlate in srebrne 
Em    Dm7 Em6          F#sus4  F#
Več ne smejo klepetati morajo takoj zaspati. 

Bm
   let ring                           let ring
e|-----10--9-7----------|---10--9-7-------------|
B|-------------10-8---7-|-----------10-8-10---7-|
G|------------------9---|-------------------9---|
D|----------------------|-----------------------|
A|-9--------------------|-9---------------------|
E|----------------------|-----------------------|

[Verse]
Bm          Em            Bm          D 
Zlato sonce gre za morje, bele sanje čez obzorje

Dm  Dm7   Dm6          Esus4        E7
Sanje so velika skleda pol iz mleka pol iz meda.

Bm
   let ring                           let ring
e|-----10--9-7----------|---10--9-7-------------|
B|-------------10-8---7-|-----------10-8-10---7-|
G|------------------9---|-------------------9---|
D|----------------------|-----------------------|
A|-9--------------------|-9---------------------|
E|----------------------|-----------------------|

[Solo]
Bm     Em     Bm       D
Dm    Dm7   Dm6       Esus4    E  E7 

[Verse]
Bm     Em     Bm       D 
Ko jim sanje zadišijo bele muce brž zaspijo

Dm    Dm7   Dm6       Esus4    E  E7 
In za njimi tudi črne in še zlate in srebrne.

Bm
   let ring                           let ring
e|-----10--9-7----------|---10--9-7-------------|
B|-------------10-8---7-|-----------10-8-10---7-|
G|------------------9---|-------------------9---|
D|----------------------|-----------------------|
A|-9--------------------|-9---------------------|
E|----------------------|-----------------------|

[Solo]
Bm     Em     Bm       D
Dm    Dm7   Dm6       Esus4    E  E7 

            
            
Suggest correction
Creating personal tab
Creating personal tab
You can edit any tab online and save it as your Personal.

You can edit, replace or remove any tab part or add personal notes – all changes will be seen only by you.

Personal tabs can be accessed anytime from any device, even offline.
Learn more »
Give kudos to tab author, rate the tab!
1 2 3 4 5
comments
print report bad tab
guest
You may want to rate the tab now too:
select rating
Wanna post a correction for this tab? Suggest correction