Oops, an error
Loading. Please wait.

19 Seventy Sumthin tab

4,006 views 111 this week
5 commentsread comments
1 2 3 4 5
x 12
add to favorites
×
Save as Personal and add changes to this tab that will be seen only by you. Learn more ›
×
You can save this tab as Personal to edit and correct it or add notes. All changes will be seen only by you. Learn more »
launch autoscroll
font size
0
reset
how to read this tab
guitar tuner
edit
Autoscroll
slow
fast
+/-
esc
set tempo
stop
[Verse] Guitar 1: (x3)
"Let's Start It Here..."
D#|--------------------------------------------|--------------------------------------------|
A#|--14--14----14--14--14--14--14--12--12--12--|--14--14----14--14--14--14--14--15--15--15--|
F#|--14--14----14--14--14--14--14--13--13--13--|--14--14----14--14--14--14--14--14--14--14--|
C#|---x---x-----x---x---x---x---x---x---x---x--|---x---x-----x---x---x---x---x---x---x---x--|
G#|--12--12----12--12--12--12--12--11--11--11--|--12--12----12--12--12--12--12--14--14--14--|
D#|--------------------------------------------|--------------------------------------------|

D#|----------------------------------|----------------------------------|
A#|-10-10---10-10-10-10-10--5--5--5--|--7--7----7--7--7--7--7--9--9--9--|
F#|-11-11---11-11-11-11-11--6--6--6--|--7--7----7--7--7--7--7--9--9--9--|
C#|--x--x----x--x--x--x--x--x--x--x--|--x--x----x--x--x--x--x--x--x--x--|
G#|--9--9----9--9--9--9--9--4--4--4--|--5--5----5--5--5--5--5--7--7--7--|
D#|----------------------------------|----------------------------------|

[Pre-Chorus] Guitar 1:
"They're Saying 'I Do...'"
D#|--------------------------------------------------------|
A#|--4--4----4--4--4--4--4----4--4--4--7--7----7--7--7--7--|
F#|--4--4----4--4--4--4--4----4--4--4--7--7----7--7--7--7--|
C#|--x--x----x--x--x--x--x----x--x--x--x--x----x--x--x--x--|
G#|--2--2----2--2--2--2--2----2--2--2--5--5----5--5--5--5--|
D#|--------------------------------------------------------|


[Chorus] Guitar 1: (x4)
"And Like The Seed..."
D#|---------------------------------------------------------------------------|
A#|--14--14----14--14--14-10-10---10-10-10--5--5----5--5--5--9--9----9--9--9--|
F#|--14--14----14--14--14-11-11---11-11-11--6--6----6--6--6--9--9----9--9--9--|
C#|---x---x-----x---x---x--x--x----x--x--x--x--x----x--x--x--x--x----x--x--x--|
G#|--12--12----12--12--12--9--9----9--9--9--4--4----4--4--4--7--7----7--7--7--|
D#|---------------------------------------------------------------------------|


[PostChorus] Guitar 1:
D#|--------------------------------------------|
A#|--14--14----14--14--14--14--14--12--12--12--|
F#|--14--14----14--14--14--14--14--13--13--13--|
C#|---x---x-----x---x---x---x---x---x---x---x--|
G#|--12--12----12--12--12--12--12--11--11--11--|
D#|--------------------------------------------|

[Verse] Guitar 1:(x3)
"And Now It's 1990 Sumthin'"
D#|--------------------------------------------|--------------------------------------------|
A#|--14--14----14--14--14--14--14--12--12--12--|--14--14----14--14--14--14--14--15--15--15--|
F#|--14--14----14--14--14--14--14--13--13--13--|--14--14----14--14--14--14--14--14--14--14--|
C#|---x---x-----x---x---x---x---x---x---x---x--|---x---x-----x---x---x---x---x---x---x---x--|
G#|--12--12----12--12--12--12--12--11--11--11--|--12--12----12--12--12--12--12--14--14--14--|
D#|--------------------------------------------|--------------------------------------------|

D#|----------------------------------|----------------------------------|
A#|-10-10---10-10-10-10-10--5--5--5--|--7--7----7--7--7--7--7--9--9--9--|
F#|-11-11---11-11-11-11-11--6--6--6--|--7--7----7--7--7--7--7--9--9--9--|
C#|--x--x----x--x--x--x--x--x--x--x--|--x--x----x--x--x--x--x--x--x--x--|
G#|--9--9----9--9--9--9--9--4--4--4--|--5--5----5--5--5--5--5--7--7--7--|
D#|----------------------------------|----------------------------------|


[Verse] Guitar 2:
"It's Been Hard..."
D#|----------12------|------------------|----------14--12--|-----------------|
A#|------14------14--|------14------12--|------14----------|------14--14/15--|
F#|--14--------------|--14------13------|--14--------------|--14-------------|
C#|------------------|------------------|------------------|-----------------|
G#|------------------|------------------|------------------|-----------------|
D#|------------------|------------------|------------------|-----------------|

D#|----------12------|--------------|----------12------|------|
A#|------14------14--|------14--12--|------14------14--|--14--|
F#|--14--------------|--14----------|--14--------------|--14--|
C#|------------------|--------------|------------------|------|
G#|------------------|--------------|------------------|------|
D#|------------------|--------------|------------------|------|

[Pre-Chorus] Guitar 1:
"Giving up...'"
D#|--------------------------------------------------------|
A#|--4--4----4--4--4--4--4----4--4--4--7--7----7--7--7--7--|
F#|--4--4----4--4--4--4--4----4--4--4--7--7----7--7--7--7--|
C#|--x--x----x--x--x--x--x----x--x--x--x--x----x--x--x--x--|
G#|--2--2----2--2--2--2--2----2--2--2--5--5----5--5--5--5--|
D#|--------------------------------------------------------|

[Chorus] Guitar 1: (x4)
"And Like The Seed..."
D#|---------------------------------------------------------------------------|
A#|--14--14----14--14--14-10-10---10-10-10--5--5----5--5--5--9--9----9--9--9--|
F#|--14--14----14--14--14-11-11---11-11-11--6--6----6--6--6--9--9----9--9--9--|
C#|---x---x-----x---x---x--x--x----x--x--x--x--x----x--x--x--x--x----x--x--x--|
G#|--12--12----12--12--12--9--9----9--9--9--4--4----4--4--4--7--7----7--7--7--|
D#|---------------------------------------------------------------------------|

[Chorus] Guitar 2: (x2)
"And Like The Seed..."
D#|--------------|--------------|--------------|----------|
A#|------14------|------17------|--------------|------12--|
F#|--14------14--|--14------14--|------13------|--14------|
C#|--------------|--------------|--14------14--|----------|
G#|--------------|--------------|--------------|----------|
D#|--------------|--------------|--------------|----------|

D#|--------------|------12--|------12------|--12------12--|
A#|------14------|----------|----------14--|------14------|
F#|--14------14--|--14------|--14----------|--------------|
C#|--------------|----------|--------------|--------------|
G#|--------------|----------|--------------|--------------|
D#|--------------|----------|--------------|--------------|

[Verse] Guitar 1:(x2)
"Now It's 2000 and Sumthin'"
D#|--------------------------------------------|--------------------------------------------|
A#|--14--14----14--14--14--14--14--12--12--12--|--14--14----14--14--14--14--14--15--15--15--|
F#|--14--14----14--14--14--14--14--13--13--13--|--14--14----14--14--14--14--14--14--14--14--|
C#|---x---x-----x---x---x---x---x---x---x---x--|---x---x-----x---x---x---x---x---x---x---x--|
G#|--12--12----12--12--12--12--12--11--11--11--|--12--12----12--12--12--12--12--14--14--14--|
D#|--------------------------------------------|--------------------------------------------|

D#|----------------------------------|----------------------------------|
A#|-10-10---10-10-10-10-10--5--5--5--|--7--7----7--7--7--7--7--9--9--9--|
F#|-11-11---11-11-11-11-11--6--6--6--|--7--7----7--7--7--7--7--9--9--9--|
C#|--x--x----x--x--x--x--x--x--x--x--|--x--x----x--x--x--x--x--x--x--x--|
G#|--9--9----9--9--9--9--9--4--4--4--|--5--5----5--5--5--5--5--7--7--7--|
D#|----------------------------------|----------------------------------|

[Verse] Guitar 2:(x2)
"Now It's 2000 and Sumthin'"
D#|----------|----------|----------|------------|
A#|----------|----------|----------|------------|
F#|----------|----------|----------|------------|
C#|----------|----------|----------|------------|
G#|----------|----------|----------|------------|
D#|--5----4--|--5----7--|--2----9--|--10----12--|

[Bridge] Guitar 2:(x2)
"That Day, When He Went Away..."
D#|--------------|--------------|--------------|--------------|
A#|--------------|--------------|--------------|--------------|
F#|--------------|--------------|--------------|--------------|
C#|--4--4--4--4--|--6--6--6--6--|--7--7--7--7--|--7--7--6--6--|
G#|--5--5--5--5--|--7--7--7--7--|--9--9--9--9--|--9--9--7--7--|
D#|--------------|--------------|--------------|--------------|

D#|--------------|--------------|--------------|----------------|
A#|--------------|--------------|--------------|----------------|
F#|--------------|--------------|--------------|----------------|
C#|--4--4--4--4--|--6--6--6--6--|--7--7--7--7--|--11--11--6--6--|
G#|--5--5--5--5--|--7--7--7--7--|--9--9--9--9--|--12--12--7--7--|
D#|--------------|--------------|--------------|----------------|

[Pre-Outro]
D#|----------|
A#|----------|
F#|----------|
C#|--1----7--|
G#|--2----7--|
D#|----------|


[Outro]
"Oh Mother, Mother Please Don't Cry..."
D#|--------------------------|--------------------------|---------------------------|------------------------|
A#|--------------------------|--------------------------|---------------------------|------------------------|
F#|--------------------------|--------------------------|---------------------6--6--|-7--7--7--7--7--7--9--9-|
C#|--7--7--7--7--7--7--6--6--|--7--7--7--7--7--7--9--9--|--4--4--4--4--4--4---6--6--|-7--7--7--7--7--7--9--9-|
G#|--7--7--7--7--7--7--7--7--|--7--7--7--7--7--7--9--9--|--4--4--4--4--4--4---4--4--|-5--5--5--5--5--5--7--7-|
D#|--5--5--5--5--5--5--4--4--|--5--5--5--5--5--5--7--7--|--2--2--2--2--2--2---------|------------------------|

D#|--------------------------|--------------------------|---------------------------|-------------------|
A#|--------------------------|--------------------------|---------------------------|-------------------|
F#|--------------------------|--------------------------|---------------------6--6--|-7--7--7--7--7--7--|
C#|--7--7--7--7--7--7--6--6--|--7--7--7--7--7--7--9--9--|--4--4--4--4--4--4---6--6--|-7--7--7--7--7--7--|
G#|--7--7--7--7--7--7--7--7--|--7--7--7--7--7--7--9--9--|--4--4--4--4--4--4---4--4--|-5--5--5--5--5--5--|
D#|--5--5--5--5--5--5--4--4--|--5--5--5--5--5--5--7--7--|--2--2--2--2--2--2---------|-------------------|

************************************

| x   Dead note
| /   Slide up

************************************

            
            
Suggest correction
Creating personal tab
Creating personal tab
You can edit any tab online and save it as your Personal.

You can edit, replace or remove any tab part or add personal notes – all changes will be seen only by you.

Personal tabs can be accessed anytime from any device, even offline.
Learn more »
comments
print report bad tab
5 comments total. Showing first comments.
0 reply
ingridgate 53 Aug 31, 2017 01:12 PM

helpful
thanks

0 reply
jarid525 10 Sep 04, 2017 10:57 PM

Anyone know the amp settings that would get this tone?

+1 reply
Blink182Bouncer 1,150 Sep 05, 2017 09:21 AM

Use the cleanest channel possible, turn up the mids, back off the bass, use more treble than usual and if possible use either the bridge or the middle pickup position.

guest
You may want to rate the tab now too:
select rating
Wanna post a correction for this tab? Suggest correction