Oops, an error
Loading. Please wait.

A Part Of Me tab

version 1
version 1

Whole song

Interactive

Video

18,357 views 54 this week
1 commentread comment
1 2 3 4 5
x 14
add to favorites
×
Save as Personal and add changes to this tab that will be seen only by you. Learn more ›
×
You can save this tab as Personal to edit and correct it or add notes. All changes will be seen only by you. Learn more »
launch autoscroll
font size
0
reset
how to read this tab
guitar tuner
edit
Autoscroll
slow
fast
+/-
esc
set tempo
stop
Author
Difficulty
-------------------------------------------------------------------------------
                             SONG NAME - Band Name
-------------------------------------------------------------------------------
Tabbed by: Ethan Harte 
E-mail: neckwondersory@gmail.com 

Tuning: Standard 

Hi, This has been one of my first ever acoustic songs to learn which I learned of the other tabs however
Neck Deep uploaded a different version of the song or at least it sounds like which was recorded in a
doc martens session, I decided to tab it out myself from watching and this is how it is played by matt,
I think this sounds way better than the other tabs (not bragging just saying due to the more
effectiveness of the open strings) but yeah here is the video if you want to follow it along, thanks
for checking it out, please let me know if anything should be added

Here is the video of them in the doc martens session: https://www.youtube.com/watch?v=DQWO1fW3R1w&app=desktop

[Verse]
e|0----------------------------------------------------0-----------------------|
B|0----------------------------------------------------0-----------------------|  x4
G|1--------Figure out the strumming pattern (sorry)----2--------repeat both of these until verses end
D|2----------------------------------------------------2-----------------------|
A|2----------------------------------------------------0-----------------------|
E|x----------------------------------------------------x-----------------------|

[Chorus]
e|0---------------0-------------0----------------------------------------------|
B|0---------------0-------------0----------------------------------------------|
G|6---------------4-------------2----------------------------------------------|  x2
D|6---------------4-------------2----------------------------------------------|
A|4---------------2-------------0----------------------------------------------|
E|x---------------x-------------x----------------------------------------------|

e|0--------0------0-------------0--------0-------0---------------------------------|
B|0--------0------0-------------0--------0-------0---------------------------------|
G|6--------9------4-------------2--------4-------2---------------------------------| x1 
D|6--------9------4-------------2--------4-------2---------------------------------|
A|4--------7------2-------------0--------2-------0---------------------------------|
E|x--------x------x-------------x--------0-------x---------------------------------|

[Verse] repeats
e|0---------------0-------------0----------------------------------------------|
B|0---------------0-------------0----------------------------------------------|
G|6---------------4-------------2----------------------------------------------|  Repeat x2
D|6---------------4-------------2----------------------------------------------|
A|4---------------2-------------0----------------------------------------------|
E|x---------------x-------------x----------------------------------------------|

e|0--------0------0-------------0--------0-------0---------------------------------|
B|0--------0------0-------------0--------0-------0---------------------------------|
G|6--------9------4-------------2--------4-------2---------------------------------| x1
D|6--------9------4-------------2--------4-------2---------------------------------|
A|4--------7------2-------------0--------2-------0---------------------------------|
E|x--------x------x-------------x--------0-------x---------------------------------| 

The song then goes into a break down which is just a repeat of
e|0---------------0-------------0----------------------------------------------|
B|0---------------0-------------0----------------------------------------------|
G|6---------------4-------------2----------------------------------------------|  Repeat x2
D|6---------------4-------------2----------------------------------------------|
A|4---------------2-------------0----------------------------------------------|
E|x---------------x-------------x----------------------------------------------|

e|0--------0------0-------------0--------0-------0---------------------------------|
B|0--------0------0-------------0--------0-------0---------------------------------|
G|6--------9------4-------------2--------4-------2---------------------------------| x1
D|6--------9------4-------------2--------4-------2---------------------------------|
A|4--------7------2-------------0--------2-------0---------------------------------|
E|x--------x------x-------------x--------0-------x---------------------------------| 

Then the song slows down into single strums of this
(single strum)

e|0---------------0-------------0----------------------------------------------|
B|0---------------0-------------0----------------------------------------------|
G|6---------------4-------------2----------------------------------------------|  x4
D|6---------------4-------------2----------------------------------------------|
A|4---------------2-------------0----------------------------------------------|
E|x---------------x-------------x----------------------------------------------|

At the end of this part the last strum is built up into multiple strums

The song then releases into the final verse
the strumming pattern in this changes but is easy to figure out as its more upbeat

e|0---------------0-------------0----------------------------------------------|
B|0---------------0-------------0----------------------------------------------|
G|6---------------4-------------2----------------------------------------------|  x4 
D|6---------------4-------------2----------------------------------------------|
A|4---------------2-------------0----------------------------------------------|
E|x---------------x-------------x----------------------------------------------|

On the final repeat of this verse they strum the last chords again after a small amount of seconds and that
ends the song

thankyou, any questions let me know and if there is any improvements please let me know too thanks

************************************

| x  Dead note

************************************

            
            
Suggest correction
Creating personal tab
Creating personal tab
You can edit any tab online and save it as your Personal.

You can edit, replace or remove any tab part or add personal notes – all changes will be seen only by you.

Personal tabs can be accessed anytime from any device, even offline.
Learn more »
comments
print report bad tab
1 comment total.
+3 reply
Kramer177 10 Jun 19, 2015 11:35 AM

Tab incomplete. Your missing pretty much all riffs of the song. This is barelly a tab. . . . . . . . . . . . . .

guest
You may want to rate the tab now too:
select rating
Wanna post a correction for this tab? Suggest correction