Oops, an error
Loading. Please wait.

I Hope This Comes Back To Haunt You tab

version 1
version 1

Whole song

  • All 4 Guitar Parts fully tabbed, and the stereo pan accounted for.

Interactive

670 views 24 this week
no commentswrite comment
1 2 3 4 5
3 more votes to show rating
add to favorites
×
Save as Personal and add changes to this tab that will be seen only by you. Learn more ›
×
You can save this tab as Personal to edit and correct it or add notes. All changes will be seen only by you. Learn more »
launch autoscroll
font size
0
reset
how to read this tab
guitar tuner
edit
Autoscroll
slow
fast
+/-
esc
set tempo
stop
About this tab version
All 4 Guitar Parts fully tabbed, and the stereo pan accounted for. Was this info helpful? Yes No
Guitar tab for "I Hope This Comes Back To Haunt You" off Neck Deep's 2015 album "Life's Not Out To Get You"

[Intro] 
(Guitar 2) (Right Speaker Pan):
"I Sat Inside With A Heavy Heart..."
D#|---------------------------------------------------------------------------------------------------|
A#|--------5-----------5-----------5-----------5-----------5-----------5-----------5------------5-----|
F#|-----2-----2-----2-----2-----2-----2-----2-----2-----2-----2-----2-----2-----2-----2-----2------2--|
C#|--------------------------------------------------0-----------0-----------0-----------0------------|
G#|--0-----------0-----------2-----------2------------------------------------------------------------|
D#|---------------------------------------------------------------------------------------------------|

D#|---------------------------------------------------------------------------------------------------|
A#|--------5-----------5-----------5-----------5-----------5-----------5-----------5------------5-----|
F#|-----2-----2-----2-----2-----2-----2-----2-----2-----2-----2-----2-----2-----2-----2-----2------2--|
C#|--------------------------------------------------0-----------0-----------0-----------0------------|
G#|--0-----------0-----------2-----------2------------------------------------------------------------|
D#|---------------------------------------------------------------------------------------------------|

D#|---------------------------------------------------------------------------------------------------|
A#|--------5-----------5-----------5-----------5-----------5-----------5-----------5------------5-----|
F#|-----2-----2-----2-----2-----2-----2-----2-----2-----2-----2-----2-----2-----2-----2-----2------2--|
C#|--4-----------4-----------4-----------4-----------2-----------2-----------2-----------2------------|
G#|---------------------------------------------------------------------------------------------------|
D#|---------------------------------------------------------------------------------------------------|

D#|--------------------------------------------------------------------------------|
A#|--------5-----------5-----------5-----------5-----------5-----------5-----------|
F#|-----2-----2-----2-----2-----2-----2-----2-----2-----2-----2-----2-----2----2---|
C#|--0-----------0-----------0-----------0-----------0-----------0-------------0---|
G#|--------------------------------------------------------------------------------|
D#|--------------------------------------------------------------------------------|

[Intro] 
(Guitar 1) 
(Left Speaker Pan):
"I Sat Inside With A Heavy Heart..."
D#|----------9----------------9---------------9------------9-------------9--------------9------|
A#|------10-----10--------10-----10-------10----10-----10----10------10-----10------10-----10--|
F#|--------------------------------------------------------------------------------------------|
A#|--11---------------11---------------9------------9------------11-------------11-------------|
G#|--------------------------------------------------------------------------------------------|
D#|--------------------------------------------------------------------------------------------|

D#|----------10--------------10------|---------9--------------9-------------9-------------9-------|
A#|------10------10------10------10--|-----10-----10------10-----10-----10-----10-----10-----10---|
F#|----------------------------------|------------------------------------------------------------|
C#|--12--------------12--------------|--11------------11-------------9-------------9--------------|
G#|----------------------------------|------------------------------------------------------------|
D#|----------------------------------|------------------------------------------------------------|

D#|-----------------------------12------12------12--------------------------------------------------|
A#|--7/10---------------------------10------10------10--9h10--------9/10--------10------------10----|
F#|--------12--11--12----12\11-----------------------------------9-----------9------9------9------9-|
C#|-----------------------------------------------------------7-----------7-------------7-----------|
G#|-------------------------------------------------------------------------------------------------|
D#|-------------------------------------------------------------------------------------------------|

D#|--------------------------------------------------------------------------------------------------------|
A#|--------10-----------9/10--------7h10--------10-----------10-----------10-----------10-----------10-----|
F#|-----9------7-----7-----------7-----------7------7-----7------7-----7------7-----7------7-----7---------|
C#|--7------------0-----------0-----------0------------0------------0------------0------------0------------|
G#|--------------------------------------------------------------------------------------------------------|
D#|--------------------------------------------------------------------------------------------------------|

D#|--------------------|
A#|--------10----------|
F#|-----7------7----7--|
C#|--0--------------0--|
G#|--------------------|
D#|--------------------|

[Verse] 
(Guitar 1)
"Then Maybe You Would Kmow Just How It Felt..."
D#|-------------------------------------------------------------|
A#|-------------------------------------------------------------|
F#|--13/14--14--14--14--14--14--14--14--14--14--14--14--14--14--|
C#|---x--x---x---x---x---x---x---x---x---x---x---x---x---x---x--|
G#|--11/12--12--12--12--12--12--12--12--12--12--12--12--12--12--|
D#|-------------------------------------------------------------|(x8)

[Verse] 
(Guitar 2)
"As You Let Me Out The Door..."
D#|---------------------------------------------------------------------|
A#|---------------------------------------------------------------------|
F#|--6-----4/6----9--9--9--9--9--9--9--9--9--9--9--9--9--9--9--9--9--9--|
C#|--x-----x-x----x--x--x--x--x--x--x--x--x--x--x--x--x--x--x--x--x--x--|
G#|--4-----2/4----7--7--7--7--7--7--7--7--7--7--7--7--7--7--7--7--7--7--|
D#|---------------------------------------------------------------------|

[Chorus] 
(Guitar 2)
"Told Myself That This Would Be The Last Time"
D#|---------------------------------------------------------|
A#|---------------------------------------------------------|
F#|------------7---7--7--7--7--6--7-------------------------|
C#|--4--4--4---7---7--7--7--7--7--7--7--7--7----7--7--7--7--|
G#|--4--4--4---5---5--5--5--5--4--5--7--7--7----7--7--7--7--|
D#|--2--2--2-------------------------5--5--5----5--5--5--5--|

[Chorus] 
(Guitar 1)
"Told Myself That This Would Be The Last Time"
D#|------------------------------------------------------------|
A#|------------------------------------------------------------|
F#|--14--14--14--13--13--13--13--14----9--9--9--7--7--7--7--6--|
C#|---x---x---x---x---x---x---x---x----x--x--x--x--x--x--x--x--|
G#|--12--12--12--11--11--11--11--12----7--7--7--5--5--5--5--4--|
D#|------------------------------------------------------------|

D#|--------------------------------------------------------------------|
D#|--------------------------------------------------------------------|
F#|--14--14--14--13--13--13--13--14----16--16--16--13--13--13--13--14--|
C#|---x---x---x---x---x---x---x---x-----x---x---x---x---x---x---x---x--|
G#|--12--12--12--11--11--11--11--12----14--14--14--11--11--11--11--12--|
D#|--------------------------------------------------------------------|

D#|---------------------------|
A#|---------------------------|
F#|--9------7------9-------6--|
C#|--x------x------x-------x--|
G#|--7------5------7-------4--|
D#|---------------------------|
(Let chords ring)

[Bridge] 
(Guitar 2)
"I Hope This Comes Back To Haunt You..."
D#|--------------------------------------------|
A#|--------------------------------------------|
F#|-----2----------2---------2----------2/4\2--|
C#|--------2----------2---------2--------------|
G#|--0----------2---------4----------0---------|
D#|--------------------------------------------|(x4)

[Chorus] 
(Guitar 2)
"Told Myself That This Would Be The Last Time..."
D#|---------------------------------------------------------|
A#|---------------------------------------------------------|
F#|------------7---7--7--7--7--6--7-------------------------|
C#|--4--4--4---7---7--7--7--7--7--7--7--7--7----7--7--7--7--|
G#|--4--4--4---5---5--5--5--5--4--5--7--7--7----7--7--7--7--|
D#|--2--2--2-------------------------5--5--5----5--5--5--5--|(x4)

[Chorus] 
(Guitar 1)
"Told Myself That This Would Be The Last Time..."
D#|------------------------------------------------------------|
A#|------------------------------------------------------------|
F#|--14--14--14--13--13--13--13--14----9--9--9--7--7--7--7--6--|
C#|---x---x---x---x---x---x---x---x----x--x--x--x--x--x--x--x--|
G#|--12--12--12--11--11--11--11--12----7--7--7--5--5--5--5--4--|
D#|------------------------------------------------------------|

D#|--------------------------------------------------------------------|
D#|--------------------------------------------------------------------|
F#|--14--14--14--13--13--13--13--14----16--16--16--13--13--13--13--14--|
C#|---x---x---x---x---x---x---x---x-----x---x---x---x---x---x---x---x--|
G#|--12--12--12--11--11--11--11--12----14--14--14--11--11--11--11--12--|
D#|--------------------------------------------------------------------|

D#|---------------------------|
A#|---------------------------|
F#|--9------7------9-------6--|
C#|--x------x------x-------x--|
G#|--7------5------7-------4--|
D#|---------------------------|
(Let chords ring)

[Transition] 
(Guitar 2)
D#|-------------------------------------------------------------------|
A#|-------------------------------------------------------------------|
F#|--6--6--6--6--6--6--6--6--6----14--14--14--14--14--14--14--14--14--|
C#|--x--x--x--x--x--x--x--x--x-----x---x---x---x---x---x---x---x---x--|
G#|--4--4--4--4--4--4--4--4--4----12--12--12--12--12--12--12--12--12--|
D#|-------------------------------------------------------------------|

[Transition] 
(Guitar 1)
D#|----------------------------------------------------------------------------|
A#|----------------------------------------------------------------------------|
F#|--14--14--14--14--14--14--14--14--14----14--14--14--14--14--14--14--14--14--|
C#|---x---x---x---x---x---x---x---x---x-----x---x---x---x---x---x---x---x---x--|
G#|--12--12--12--12--12--12--12--12--12----12--12--12--12--12--12--12--12--12--|
D#|----------------------------------------------------------------------------|

[Outro] 
(Guitar 2)
"And Everyday That's Passing..."
D#|-------------------|-------------------------------|
A#|-------------------|-------------------------------|
F#|--------9--9--7----|--------9--9--7----7--6--7--9--|
C#|--7--7--9--9--7----|--7--7--9--9--7----7--7--7--9--|
G#|--7--7--7--7--5----|--7--7--7--7--5----5--4--5--7--|
D#|--5--5-------------|--5--5-------------------------|

[Outro] 
(Guitar 1)
"And Everyday That's Passing..."
D#|-----------------------|-----------------------------------|-----------------------|--------------------|
A#|-----------------------|-----------------------------------|-----------------------|--------------------|
F#|--9--9--13--13--9/11\9-|--9--9--13--13--14----14-13-14-16--|--9--9--13--13--9/11\9-|--9--9--------------|
C#|--x--x---x---x--x-x-x--|--x--x---x---x---x-----x--x--x--x--|--x--x---x---x--x-x-x--|--x--x-11\9--9/11\7-|
G#|--7--7--11--11--7/9\7--|--7--7--11--11--12----12\11/12/14--|--7--7--11--11--7/9\7--|--7--7--x-x----x-x--|
D#|-----------------------|-----------------------------------|-----------------------|--------9\7--7/9\5--|

[Outro] 
(Guitar 3) 
(Comes in at 1:51)
"Wake Up The World Seems Brighter Today..."
D#|------------------------------------|---------------------------------------------|
A#|--10-----10-----10-----10-----9h10--|--10-----10-----10-----10-----10--9--10--12--|
F#|------9------9------9------9--------|------9------9------9------9-----------------|
C#|------------------------------------|---------------------------------------------|
G#|------------------------------------|---------------------------------------------|
D#|------------------------------------|---------------------------------------------|

[Outro]
(Guitar 4) 
(Comes in at 2:06)
"Wake Up The World Seems Brighter Today..."
D#|-------------------------|----------------------|
A#|-------------------------|----------------------|
F#|--11--9--7--6------------|----------------------|
C#|---------------7--7/9\7--|--7--7----4\2--2/4\0--|
G#|-------------------------|----------------------|
D#|-------------------------|----------------------|



************************************

| x   Dead note
| /   Slide up
| \   Slide down

************************************

            
            
Suggest correction
Creating personal tab
Creating personal tab
You can edit any tab online and save it as your Personal.

You can edit, replace or remove any tab part or add personal notes – all changes will be seen only by you.

Personal tabs can be accessed anytime from any device, even offline.
Learn more »
Give kudos to tab author, rate the tab!
1 2 3 4 5
comments
print report bad tab
guest
You may want to rate the tab now too:
select rating
Wanna post a correction for this tab? Suggest correction