Oops, an error
Loading. Please wait.

Motion Sickness tab

version 1
version 1

Whole song

  • Leads for the song.
  • Both Guitar Parts in the tuning of the original recording.
5,029 views 108 this week
no commentswrite comment
1 2 3 4 5
x 4
add to favorites
×
Save as Personal and add changes to this tab that will be seen only by you. Learn more ›
×
You can save this tab as Personal to edit and correct it or add notes. All changes will be seen only by you. Learn more »
launch autoscroll
font size
0
reset
how to read this tab
guitar tuner
edit
Autoscroll
slow
fast
+/-
esc
set tempo
stop
My cover: https://www.youtube.com/watch?v=OmcEF-FHGkE

[Intro and Lead During Chorus]
e|---------------------------------------------------------------------------|
B|--------10----------10---------10------------------------------------------|
G|-7-7-7-------7-7-7------7-7-7-------7-7-7----------------------------------|
D|---------------------------------------------------------------------------|
A|---------------------------------------------------------------------------|
D|---------------------------------------------------------------------------|

[Intro cont.]
e|---------------------------------------------------------------------------|
B|---------------------------------------------------------------------------|
G|---------------------------------------------------------------------------|
D|-9-9-9-9---5-5-5-5---0-0-0-0------------0-0-0---0-0-0----------------------|
A|-9-9-9-9---5-5-5-5---0-0-0-0------------0-0-0---0-0-0----------------------|
D|-9-9-9-9---5-5-5-5---0-0-0-0------------0-0-0---0-0-0----------------------|

e|---------------------------------------------------------------------------|
B|---------------------------------------------------------------------------|
G|---------------------------------------------------------------------------|
D|-9-9-9-9---5-5-5-5---0-0-0-0---0-0-0-0-------------------------------------| (repeat twice)
A|-9-9-9-9---5-5-5-5---0-0-0-0---0-0-0-0-------------------------------------|
D|-9-9-9-9---5-5-5-5---0-0-0-0---0-0-0-0---0--2-2-2-2--2/4-------------------|

[Verse]
e|---------------------------------------------------------------------------|
B|---------------------------------------------------------------------------|
G|---------------------------------------------------------------------------|
D|-0---------5-5-5-5---5--5-5-5-5---5-5-5-5--5---5-5-5-5--0-------0-0-0---0--|
A|-0---------5-5-5-5---5--5-5-5-5---5-5-5-5--5---5-5-5-5--0-------0-0-0---0--|
D|-0---------5-5-5-5---5--5-5-5-5---5-5-5-5--5---5-5-5-5--0-------0-0-0---0--|

e|---------------------------------------------------------------------------|
B|---------------------------------------------------------------------------|
G|---------------------------------------------------------------------------|
D|-5-5-5-5---5--5-5-5-5---5-5-5-5--5---5-5-5-5----9-9-9-9--9-9--9-9--9-------|
A|-5-5-5-5---5--5-5-5-5---5-5-5-5--5---5-5-5-5----9-9-9-9--9-9--9-9--9-------|
D|-5-5-5-5---5--5-5-5-5---5-5-5-5--5---5-5-5-5----9-9-9-9--9-9--9-9--9-------|

e|---------------------------------------------------------------------------|
B|---------------------------------------------------------------------------|
G|---------------------------------------------------------------------------|
D|-7-7-7-7--7-7--7-7--7---2-2-2-2--2-2--2-2--2---5-5-5-5-5-5-5-5-------------|
A|-7-7-7-7--7-7--7-7--7---2-2-2-2--2-2--2-2--2---5-5-5-5-5-5-5-5-------------|
D|-7-7-7-7--7-7--7-7--7---2-2-2-2--2-2--2-2--2---5-5-5-5-5-5-5-5-------------|

[Chorus]
e|---------------------------------------------------------------------------|
B|---------------------------------------------------------------------------|
G|---------------------------------------------------------------------------|
D|-9-9-9-9---5-5-5-5---0-0-0-0------------0-0-0---0-0-0----------------------|
A|-9-9-9-9---5-5-5-5---0-0-0-0------------0-0-0---0-0-0----------------------|
D|-9-9-9-9---5-5-5-5---0-0-0-0------------0-0-0---0-0-0----------------------|

e|---------------------------------------------------------------------------|
B|---------------------------------------------------------------------------|
G|---------------------------------------------------------------------------|
D|-9-9-9-9---5-5-5-5---0-0-0-0---0-0-0-0-------------------------------------| (repeat twice)
A|-9-9-9-9---5-5-5-5---0-0-0-0---0-0-0-0-------------------------------------|
D|-9-9-9-9---5-5-5-5---0-0-0-0---0-0-0-0---0--2-2-2-2--2/4-------------------|

[Verse 2]
e|-------------------------------------------------------------------------------|
B|-------------------------------------------------------------------------------|
G|-------------------------------------------------------------------------------|
D|-0----0-0-0-0--5-5-5-5---5--5-5-5-5---5-5-5-5--5---5-5-5-5--0-------0-0-0---0--|
A|-0----0-0-0-0--5-5-5-5---5--5-5-5-5---5-5-5-5--5---5-5-5-5--0-------0-0-0---0--|
D|-0----0-0-0-0--5-5-5-5---5--5-5-5-5---5-5-5-5--5---5-5-5-5--0-------0-0-0---0--|

e|------------------------------------------------------------------------------------|
B|------------------------------------------------------------------------------------|
G|---------------------------------------------------7------6-----------2------4------|
D|-5-5-5-5---5--5-5-5-5---5-5-5-5--5---5-5-5-5-----0------0---0-------0------0----0---|
A|-5-5-5-5---5--5-5-5-5---5-5-5-5--5---5-5-5-5----------------------------------------|
D|-5-5-5-5---5--5-5-5-5---5-5-5-5--5---5-5-5-5---9------7-------7---2------5-------5--|

e|-----------------------------------------------------------------------------------------|
B|-----------------------------------------------------------------------------------------|
G|-----------------------------------------------------------------------------------------|
D|-9-9-9-9--9-9--9-9--9--7-7-7-7--7-7--7-7--7---2-2-2-2-2-2-2-2-2-2-2-2---5-5-5-5-5-5-5-5--|
A|-9-9-9-9--9-9--9-9--9--7-7-7-7--7-7--7-7--7---2-2-2-2-2-2-2-2-2-2-2-2---5-5-5-5-5-5-5-5--|
D|-9-9-9-9--9-9--9-9--9--7-7-7-7--7-7--7-7--7---2-2-2-2-2-2-2-2-2-2-2-2---5-5-5-5-5-5-5-5--|

[Chorus]
e|---------------------------------------------------------------------------|
B|---------------------------------------------------------------------------|
G|---------------------------------------------------------------------------|
D|-9-9-9-9---5-5-5-5---0-0-0-0------------0-0-0---0-0-0----------------------|
A|-9-9-9-9---5-5-5-5---0-0-0-0------------0-0-0---0-0-0----------------------|
D|-9-9-9-9---5-5-5-5---0-0-0-0------------0-0-0---0-0-0----------------------|

e|---------------------------------------------------------------------------|
B|---------------------------------------------------------------------------|
G|---------------------------------------------------------------------------|
D|-9-9-9-9---5-5-5-5---0-0-0-0---0-0-0-0-------------------------------------| (repeat twice)
A|-9-9-9-9---5-5-5-5---0-0-0-0---0-0-0-0-------------------------------------|
D|-9-9-9-9---5-5-5-5---0-0-0-0---0-0-0-0---0--2-2-2-2--2/4-------------------|

[Bridge]
e|---------------------------------------------------------------------------|
B|-7--7--6--7--7---7--7--6--9--9---7--7--6--7--7----7--7--7--9--9------------|
G|-7--7--7--7--7---7--7--7--7--7---7--7--7--7--7----7--7--7--7--7------------| (repeat twice)
D|-0--0--0--0--0---0--0--0--0--0---0--0--0--0--0----0--0--0--0--0------------|
A|---------------------------------------------------------------------------|
D|---------------------------------------------------------------------------|

e|-----------------------------------------------------------------------------|
B|-----------------------------------------------------------------------------|
G|-----------------------------------------------------------------------------|
D|-0-0-0--0-0-0--0-0-0--2-2-2--2-2-2--2-2-2--5-5-5--5-5-5--5-5-5--5-5-5-5-5-5--|
A|-0-0-0--0-0-0--0-0-0--2-2-2--2-2-2--2-2-2--5-5-5--5-5-5--5-5-5--5-5-5-5-5-5--|
D|-0-0-0--0-0-0--0-0-0--2-2-2--2-2-2--2-2-2--5-5-5--5-5-5--5-5-5--5-5-5-5-5-5--|

[Chorus]
e|---------------------------------------------------------------------------|
B|---------------------------------------------------------------------------|
G|---------------------------------------------------------------------------|
D|-9-9-9-9---5-5-5-5---0-0-0-0------------0-0-0---0-0-0----------------------|
A|-9-9-9-9---5-5-5-5---0-0-0-0------------0-0-0---0-0-0----------------------|
D|-9-9-9-9---5-5-5-5---0-0-0-0------------0-0-0---0-0-0----------------------|

e|---------------------------------------------------------------------------|
B|---------------------------------------------------------------------------|
G|---------------------------------------------------------------------------|
D|-9-9-9-9---5-5-5-5---0-0-0-0---0-0-0-0-------------------------------------| 
A|-9-9-9-9---5-5-5-5---0-0-0-0---0-0-0-0-------------------------------------|
D|-9-9-9-9---5-5-5-5---0-0-0-0---0-0-0-0---0--2-2-2-2--2/4-------------------|

e|---------------------------------------------------------------------------|
B|---------------------------------------------------------------------------|
G|---------------------------------------------------------------------------|
D|-9-9-9-9---5-5-5-5---0-0-0-0------------0-0-0---0-0-0----------------------|
A|-9-9-9-9---5-5-5-5---0-0-0-0------------0-0-0---0-0-0----------------------|
D|-9-9-9-9---5-5-5-5---0-0-0-0------------0-0-0---0-0-0----------------------|

e|---------------------------------------------------------------------------|
B|---------------------------------------------------------------------------|
G|---------------------------------------------------------------------------|
D|-9-9-9-9---5-5-5-5---0-0-0-0---0-0-0-0---0---------------------------------| 
A|-9-9-9-9---5-5-5-5---0-0-0-0---0-0-0-0---0---------------------------------|
D|-9-9-9-9---5-5-5-5---0-0-0-0---0-0-0-0---0---------------------------------|

[Outro]
e|---------------------------------------------------------------------------|
B|---------------------------------------------------------------------------|
G|---------------------------------------------------------------------------|
D|-9-9-9-9---5-5-5-5---0-0-0-0--0-0-0-0---0-0-0---0-0-0----------------------|
A|-9-9-9-9---5-5-5-5---0-0-0-0--0-0-0-0---0-0-0---0-0-0----------------------|
D|-9-9-9-9---5-5-5-5---0-0-0-0--0-0-0-0---0-0-0---0-0-0----------------------|

e|---------------------------------------------------------------------------|
B|---------------------------------------------------------------------------|
G|---------------------------------------------------------------------------|
D|-9-9-9-9---5-5-5-5---0-0-0-0---0-0-0-0-------------------------------------| 
A|-9-9-9-9---5-5-5-5---0-0-0-0---0-0-0-0-------------------------------------|
D|-9-9-9-9---5-5-5-5---0-0-0-0---0-0-0-0---0--2-2-2-2--2/4-------------------|

e|---------------------------------------------------------------------------|
B|---------------------------------------------------------------------------|
G|---------------------------------------------------------------------------|
D|-9-9-9-9---5-5-5-5---0-0-0-0--0-0-0-0---0-0-0---0-0-0----------------------|
A|-9-9-9-9---5-5-5-5---0-0-0-0--0-0-0-0---0-0-0---0-0-0----------------------|
D|-9-9-9-9---5-5-5-5---0-0-0-0--0-0-0-0---0-0-0---0-0-0----------------------|

e|---------------------------------------------------------------------------|
B|-------------------------------3-------------------------------------------|
G|-------------------------------2-------------------------------------------|
D|-9-9-9-9---5-5-5-5---0-0-0-0---0-------------------------------------------| 
A|-9-9-9-9---5-5-5-5---0-0-0-0---0-------------------------------------------|
D|-9-9-9-9---5-5-5-5---0-0-0-0---0-------------------------------------------|



************************************

| /  Slide up

************************************

            
            
Suggest correction
Creating personal tab
Creating personal tab
You can edit any tab online and save it as your Personal.

You can edit, replace or remove any tab part or add personal notes – all changes will be seen only by you.

Personal tabs can be accessed anytime from any device, even offline.
Learn more »
comments
print report bad tab
guest
You may want to rate the tab now too:
select rating
Wanna post a correction for this tab? Suggest correction